Rainbow

Starstruck

Rainbow

tabs Intermediate intermediate

by  DRUMMER_COMETH

save to print version add songbook text version e-mail correct tuner
chordsukulelecavacokeyboardtabbassdrumsharmonicaflute Guitar Pro
close

there isn't a video lesson for this song

chords

Starstruck

Year: 1976 - Album: Catch the Rainbow: The Anthology

	  		-------------------------------------------------------------|--------------|- 
----------------------12-12-12p10----------------------------|--------------|- 
----------------------------------11-9h11-9-7h9-7-6h7-6-4h6-4|-------------7|- 
--9-9-9p7---9-9-9p7------------------------------------------|-----7-----7--|- 
----------9---------9----------------------------------------|-8h9---8h9----|- 
-------------------------------------------------------------|--------------|- 
  intro: 4x                                                   2X               
 
-|-----------------|---------------------------|----------------|------------- 
-|-----------------|---------------------------|----------------|------------- 
-|-----------------|---------7------------9-7--|----------------|------------- 
-|-----9-----9p7---|---------5------------7-5--|----5-----5p3---|------------- 
-|---------------9-|-9-9-9-9---9--9-9-9-9------|----------------|-7----------- 
-|---7---7-7-------|-7-7-7-7---7--7-7-7-7------|--3---3-3-------|-5----------- 
   verse:               riff 1                                                 
 
-----------|------------------------------------------------------------------ 
-----------|------------------------------------------------------------------ 
-6h7p6h7p6-|------------------------------------------------------------------ 
-----------|---4-------------------------------------------------------------- 
-----------|------------------------------------------------------------------ 
-----------|-2---------------------------------------------------------------- 
             ...seen it before I know what...                                  
 
------------------------------------------------------------------------------ 
------------------------------------------------------------------------------ 
------------------------------------------------------------------------------ 
------------------------------------------------------------------------------ 
------------------------------------------------------------------------------ 
------------------------------------------------------------------------------ 
 refrain: Lady starstruck she's nothing but bad luck= riff 1                   
 
 
If I'm high on the hill 
She'd still been looking down at me 
What does she see that brings her closer every day to my heart 
If I'm away from home 
And think I'm all alone 
She's there, somewhere 
I look around and see 
And looking back at me 
She's there, beware! 
 
Creeping like a hungry cat 
I've seen her before 
I know it can mean that 
 
The lady starstruck, she's nothing but bad luck 
The lady starstruck, running after me 
The lady starstruck, she's nothing but bad luck, yeah 
 
I could fly to the moon 
But she soon find me and wait me there 
I never knew for a while as smile made me really care 
 
She wants a souvenir 
To everyone it's clear 
She's hot, hot - hot, hot, one look 
She want a photograph 
But everybody laughs but not me 'cause I see 
 
She's creeping like a hungry cat 
I've seen her before 
I know I can mean that 
 
The lady starstruck, she's nothing but bad luck 
The lady starstruck, running after me 
The lady starstruck, she's nothing but bad luck, oh oh o-o-oh 
Oh my 
The lady starstruck, she's nothing but bad luck 
The lady starstruck, running after me, yeah 
The lady starstruck, she's nothing but bad luck, yeah 
 
It used to be a game 
Now I can't repeat my name at all 
She seems to believe that 
I never can refuse a call 
 
She wants a souvenir 
To everyone it's clear 
She's hot; one look 
She want a photograph 
And everybody laughs, hah! 
But not me 'cause I see 
 
She's creeping like a hungry cat 
I've seen her before 
I know it can mean that 
 
The lady starstruck, she's nothing but bad luck 
The lady starstruck, running after me 
The lady starstruck, she's nothing but bad luck, bad luck 
The lady starstruck, she's nothing but bad luck 
 
The lady starstruck running after me 
The lady starstruck, she's nothing but bad luck 
Bad luck, bad luck, bad luck 
And back in the tree looking back at me 
Climbing up my stair 
I've just got to beware 
Lady starstruck, yes, she's bad luck, bad luck 
 
 

		  

See also:

tabs Pantera - Cemetary Gates tabs Twisted Syster - Were not gonna take tabs Marilyn Manson - Disposable Teens tabs Dream Theater - Endless Sacrifice tabs Manowar - Brothers Of Metal tabs Alice Cooper - Poison
e-chords

Other versions:

tabs Rainbow - Starstruck
auto scroll beats size up size down change color hide chords drawings
tab show chords e-chords YouTube Clip e-chords hide all tabs e-chords go to top tab

share