Queen

home > Queen

We will rock you Tab

Queen

Difficulty: BeginnerBeginner

by Guirocknaveia

tuner correct add songbook print version text version save to e-mail
chordsukulelecavacokeyboardtabbassdrummharmonicsflute Guitar Pro
chords

We will rock you

Year: 1977 - Album: Greatest Hits

  		Qualquer d˙vida fale com Guilherme Breda Rezende([email protected]).

Valeu galera!!!

|------------------------------------------|-----------------------------
|-5-------222---2xx--2--2-214---h15--1514--|--1414h1515p1415p141514--14--
|-5-------222---2xx--2--2-214--------1414--|--1414---14---14---1414------
|-5-------222---2xx-22--2-214-14h16--1614--|----14h1616p1416p141614------
|-3-------000---0xx-00--0-0-0-------0------|-0---0---------0------0------
|--------------3---2-----3-----------------|-----------------------------

|-1715--14--------------------------------------------14----------
|-----------17--1514--15---1514--------17--1714-17b19---1714------
|---------------1414--14-------1614------14-(14)------------171614
|(14)-14--14--14----1616--------(14)-14-----(14)------------------
|(-0)------------------0------------------------------------------
|-----------------------------------------------------------------

|-------------------|--------------------------|----|
|-14-15p1415141414--|-14-15p1415141414-15--14--|----|
|-14-14---14141414--|-14-14---14141414-14--14--|-0/-|
|-14-16p1416141414--|-14-16p1416141414-16--14--|-/0-|
|------------0-0-0--|0-0---------0-0-0--0--0---|----|
|-------------------|--------------------------| 2X |

fast version / Live Killers

|---------------|----|----------------------------------|----|
|-9--10(p9)10p9-|----|-------10--10p9-------------------|----|
|-9---9-----9---|-0/-|--------9---9---------------------|-0/-|
|-9---9-----9---|-/0-|-9---9--9---9------9---9-911---9--|-/0-|
|-7---7-----7---|----|-7---7-------------7---7-7-----7--|----|
|-0---0-----0---| 7X |-0---0-------------0---0-0-----0--|----|

G(X) D(X) C(VIII)

|-----------|
|-----------|
|-----------|
|-------9---|
|-------7---|
|-3-2-1-0---|

...

|------------------------------|----|-------------------------------|
|-12-----12--12--12------------|----|-15b17---17r15p12-15-----------|
|-11b13-b13-b13-b13r12p10----10|-0/-|-----------------------14b16---|
|-------------------------12---|-/0-|-------------------------------|
|------------------------------|----|-------------------------------|
|------------------------------|----|-------------------------------|


|-------------------------------------------------------------------|
|-12------------------(12)------------------------------------------|
|------14p12-14p12-----12-------------------------------------------|
|-----------------14--------14p12-----------------------------------|
|--------------------------------14---13---12---10---12p10----------|
|----------------------------------------------------------12\------|
transcribed by Jean Carnieletto

Lyrics:

   Buddy you're a boy make a big noise
   Playin' in the street gonna be a big man some day
   You got mud on yo' face
   You big disgrace
   Kickin' your can all over the place

  Singin'
   We will we will rock you
   We will we will rock you

   Buddy you're a young man hard man
   Shoutin' in the street gonna take on
   the world some day
   You got blood on yo' face
   You big disgrace
   Wavin' your banner all over the place

    We will we will rock you
   Singin'
    We will we will rock you

    Buddy you're an old man poor man
    Pleadin' with your eyes gonna make you
    some peace some day
    You got mud on your face
    You big disgrace
    Somebody better put you back into your place

    We will we will rock you
   Singin
    We will we will rock you
   Everybody
    We will we will rock you
    We will we will rock you
   Alright
	  

Search Paypal
auto scroll beats size up size down change color hide chords drawings
tab show chords e-chords YouTube Clip e-chords hide all tabs e-chords go to top tab