Queen

Radio Ga Ga Tab

Queen

Difficulty: nolevelnolevel

by europeu

tuner correct add songbook print version text version save to e-mail
chordsukuleleukulelecavacokeyboardtabbassdrummharmonicsflute Guitar Pro
close
radio-ga-ga-queen

there is a video lesson for this song

view more
chords

Radio Ga Ga

Year: 1984 - Album: Works

(Taylor)

  		GUITAR1:first Chorus(2:04)  LET RING THROUGHOUT!clean sound 
(count)1 + 2 + 3 + 4 +  1 + 2 + 3 + 4 +  1 + 2 + 3 + 4 +  1 + 2 + 3 + 4 +  
     e --------1-------|----1-----------|----1-----------|----1----------- 
     h ----1-------1---|--------1-------|--------1-------|--------1------- 
     g ----------------|3---------2-----|3---------2-----|3---------2----- 
     d ----------------|------------3---|------------3---|------------3--- 
     a ----------------|----------------|----------------|---------------- 
     E ----------------|----------------|----------------|---------------- 
                     P L A Y this two times 

1 + 2 + 3 + 4 +  1 + 2 + 3 + 4 +  1 + 2 + 3 + 4 +  
----------------|----------------|5---------------| 
8---------------|3-------5-------|6---------------| 
8---------------|3-------5-------|7---------------| 
8---------------|3-------5-------|7---------------| 
6---------------|1-------3-------|5---------------| 
----------------|----------------|----------------| 

2nd Chorus(3:49) 
1 + 2 + 3 + 4 +  1 + 2 + 3 + 4 +  1 + 2 + 3 + 4 +  1 + 2 + 3 + 4 + 
--------1-------|----1-----------|----1-----------|----1-----------| 
----1-------1---|--------1-------|--------1-------|--------1-------| 
----------------|3---------2-----|3---------2-----|3---------2-----| 
----------------|------------3---|------------3---|------------3---| 
----------------|----------------|----------------|----------------| 
----------------|----------------|----------------|----------------| 

1 + 2 + 3 + 4 +  1 + 2 + 3 + 4 +  
----------------|----------------| 
8---------------|3---------------| 
8---------------|3---------------| 
8---------------|3---------------| 
6---------------|1---------------| 
----------------|----------------| 

SOLO 
guitar2:Clean,with echo/delay,PLAY WITH SLIDE,LET RING 
 1 + 2 + 3 + 4 +  1 + 2 + 3 + 4 +  
e----------------|----------------| 
h------------6---|13--------------|2 TIMES 
g----------------|----------------| 
d----------------|----------------| 
a----------------|----------------| 
e----------------|----------------| 

1 + 2 + 3 + 4 +  1 + 2 + 3 + 4 +  1 + 2 + 3 + 4 +  1 + 2 + 3 + 4 +  
----------------|----------------|----------------|----------------| 
------------6---|15--------------|--------17------|18--------------| 
----------------|----------------|----------------|----------------| 
----------------|----------------|----------------|----------------| 
----------------|----------------|----------------|----------------| 
----------------|----------------|----------------|----------------| 
                 5:03 
1 + 2 + 3 + 4 +  1 + 2 + 3 + 4 +  1 + 2 + 3 + 4 +  
----------------|----------------|13-------------- 
17------15------|--13------------|---------------- 
----------------|----------------|---------------- 
----------------|----------------|---------------- 
----------------|----------------|---------------- 
----------------|----------------|---------------- 
3 bars break,then: 
1 + 2 + 3 + 4 +  1 + 2 + 3 + 4 +    
----------------|----------------| 
------------6---|13--------------|2 times 
----------------|----------------| 
----------------|----------------| 
----------------|----------------| 
----------------|----------------| 

1 + 2 + 3 + 4 +  1 + 2 + 3 + 4 +  1 + 2 + 3 + 4 +  1 + 2 + 3 + 4 +   
----------------|----------------|------------12--|13--------------| 
------------6---|15--------------|----------------|----------------| 
----------------|----------------|----------------|----------------| 
----------------|----------------|----------------|----------------| 
----------------|----------------|----------------|----------------| 
----------------|----------------|----------------|----------------| 

1 + 2 + 3 + 4 +  1 + 2 + 3 + 4 +  1 + 2 + 3 + 4 +  1 + 2 + 3 + 4 +  
15--------------|17--------------|17------15--17--|18-------------- 
----------------|----------------|----------------|---------------- 
----------------|----------------|----------------|---------------- 
----------------|----------------|----------------|---------------- 
----------------|----------------|----------------|---------------- 
----------------|----------------|----------------|---------------- 

1 + 2 + 3 + 4 +  1 + 2 + 3 + 4 +  
20--------------|13--------------| 
----------------|----------------| 
----------------|----------------| 
----------------|----------------| 
----------------|----------------| 
----------------|----------------| 


	  

Search Paypal
auto scroll beats size up size down change color hide chords drawings
tab show chords e-chords YouTube Clip e-chords hide all tabs e-chords go to top tab

share with facebook