Queen

Play the game Tab

Queen

Difficulty: BeginnerBeginner

by Jekinha2

tuner correct add songbook print version text version save to e-mail
chordsukuleleukulelecavacokeyboardtabbassdrumsharmonicsflute Guitar Pro
close

there isn't a video lesson for this song

request
chords

Play the game

Year: 1980 - Album: Greatest Hits

(Freddie Mercury)

  		Solo: 
 
-----------------------------------5--3-- 
------4h5-----6-8-6-8-5-3---------------- 
---------------------------4-2----------- 
---5---------------------------5--------- 
----------------------------------------- 
----------------------------------------- 
 
--0---------10-10p8----12--12-12-8------- 
-----3-1--------------------------------- 
-----------------------------------12---- 
----------------------------------------- 
----------------------------------------- 
----------------------------------------- 
 
---17----15------------------------------ 
-----------17-15------------------------- 
----------------17-14-------------------- 
----------------------------------------- 
----------------------------------------- 
----------------------------------------- 

	  

Search Paypal
auto scroll beats size up size down change color hide chords drawings
tab show chords e-chords YouTube Clip e-chords hide all tabs e-chords go to top tab

share with facebook