Queen

Dont Try So Hard Tab

Queen

Difficulty: IntermediateIntermediate

by europeu

tuner correct add songbook print version text version save to e-mail
chordsukulelecavacokeyboardtabbassdrumsharmonicsflute Guitar Pro
close

there isn't a video lesson for this song

request
chords

Dont Try So Hard

  		intro 
|--------------<12>---<5>---| 
|---------<12>--------------| 
|---------------------------| 
|---------------------------| 
|-----<5>-------------------| 
|-<5>-----------------------| 

clean guitar (0:33) 
verse 
|---------0-------------------0---|---------0-------------------0---| 
|-----------0-----1-0-0-----------|-------1---1-----1-0-0-----------| 
|-------0-----0-----------0-------|-----2-------2---------2-2-------| 
|-----2---------2-------2---2-----|---2-----------2-----------2-----| 
|---2-----------------------------|-0-------------------------------| 
|-0-------------------------------|---------------------------------| 

|-------2-0-------------2-3-------|-------------0---0---------------| 
|-----3-----1---------3-----1-----|-----1-0---------0---------------| 
|---2---------0-----2---------0---|-----------0-----0---------------| 
|-0-------------0-0-------------0-|---2-------------2---------------| 
|---------------------------------|-0---------------2---------------| 
|---------------------------------|-----------------0---------------| 

Chorus 
|---------2---------------0-------|---------2-------------0---------| 
|-----3-------3-------1-----1-----|-----3----3------------1-1-------| 
|---2---2---2---2---0---0-----0---|-----2-----2---------2-------2---| 
|-0-----------------------------0-|---0---0-----0-----2-------------| 
|-----------------3---------------|-2-------------2-0-------------0-| 
|---------------------------------|---------------------------------| 
... 

second verse 
|---------0-----------------------|---------0-----------------------| 
|-----0-----0-----1-0-------------|-------0---0---0-1-0-0-----------| 
|---0---0-----0---------0---0---0-|-----2-------2-----------2---0---| 
|-2-------------2-----2---2---2---|---2-------------------2---2---2-| 
|---------------------------------|-0-------------------------------| 
|---------------------------------|---------------------------------| 

|-------2-------------2---0-------|-----------------0---------------| 
|-----3-------1---------3---1-----|-------0---------0---------------| 
|---2-------0---0---2---------0---|-----2---2---2---0---------------| 
|-4-------2-------0---------------|---2-------2-----2---------------| 
|-------------------------------3-|-0---------------2---------------| 
|---------------------------------|-----------------0---------------| 

solo 
|----------------------------------------------------------------| 
|----------------------------------------------------------------| 
|-----------------------------11b_12---11b_12----b11r_9b_11r_9---| 
|-10_p9--10_p9--10_p9--10_p9-------------------------------------| 
|----------------------------------------------------------------| 
|----------------------------------------------------------------| 

|-------------------------------------------------| 
|-------------------------------------------------| 
|----9--11b_12r_11--b12r_11--9__\--4--4\2--2___/--| 
|-9-----------------------------------------------| 
|-------------------------------------------------| 
|-------------------------------------------------| 

|-----------------------------------------------------------------------------| 
|-17b19__rb19--b19_r17p15------------------17b19--(17)b20-(17)b19v_r17-15-17_/| 
|-------------------------16b18__r16p14---------------------------------------| 
|-----------------------------------------------------------------------------| 
|-----------------------------------------------------------------------------| 
|-----------------------------------------------------------------------------| 

|-------------------------------------17--19--b20v---19p17-19v---| 
|----------------------------17-19-20----------------------------| 
|-------------------16-17-19-------------------------(0)---------| 
|----------16-17-19----------------------------------------------| 
|-17-17-19-------------------------------------------------------| 
|----------------------------------------------------------------| 

|-----22b24---22b24_r22vv---| 
|---------------------------| 
|---x-----------------------| 
|-x-x-----------------------| 
|-x-x-----------------------| 
|---------------------------| 

clean guitar (3:09) 
|-------0-------0-------0-------0---------| 
|-----0-------0-------0-------0------8----| 
|---0-------0-------0-------0-------9-----| 
|-2-------4-------5-------9-------10------| 
|-----------------------------------------| 
|-----------------------------------------| 
	  

Search Paypal
auto scroll beats size up size down change color hide chords drawings
tab show chords e-chords YouTube Clip e-chords hide all tabs e-chords go to top tab

share with facebook