Pop Corn

Juliana

Pop Corn

tabs

by  PANCHY-TRONIC

save to print version add songbook text version e-mail correct tuner
chordsukulelecavacokeyboardtabbassdrumsharmonicaflute Guitar Pro
close

there isn't a video lesson for this song

chords

Juliana

	  		|-----7---------5---------4-----------------| 
|-5-5---5---5-5---5---5-5---5---5-5-7-5-4-5-| 
|-------------------------------------------| 
|-------------------------------------------| cuatro veces 
|-------------------------------------------| 
|-------------------------------------------| 
 
|-7-7-7-7-7--5-5-5-5-5--7-7-7-7-7--x-x-4-x-x-5-| 
|----------------------------------------------| 
|----------------------------------------------| 
|----------------------------------------------| 
|----------------------------------------------|  cuatro veces 
|----------------------------------------------| 
 
D5 
Entregué mucho 
Am5            B5          G5    D5 A5(X2)B5 
Y al final poco se recibió 
D5                    Am5 
Tu marioneta favorita 
       B5        G5    D5 A5(X2)B5 
Parecia que era yo 
D5                        Am5 
Me manejaste a tu manera 
            B5             G5 
Lo que menos te importo fui yo 
D5                    Am5 
Nunca fuiste a mis conciertos 
         B5                G5 
No se en que estaba pensando yo 
 
|-------------------------| 
|-------------------------| 
|-7-7---2-2---4-4---------| 
|-7-7---2-2---4-4---7-5---| 
|-5-5---0-0---2-2---7-5---| 
|-------------------5-3---| 
 
CORO: 
D5                A5 
Tu disculpa a mi mama, 
B5                G5 
No sabias que inventar 
D5              A5 
Espero seas feliz 
B5               G5 
Ya que no estas junto a mi 
 
|--------------------| 
|--------------------| 
|--------------------| x20 
|------7-8-7---------| 
|-8-10-------10-8-10-| 
|--------------------| 
 
(Mismos acordes de principio 
Solo cambian la formas de tocarse) 
 
Aunque a veces pienso en ti 
Hoy sigo siendo muy feliz 
Pues mis momentos de alegria 
No quisiste compartir 
Y cuando estés con alguien 
Espero sepas como vivir 
Y si te hace lo que me hiciste 
Ya sabras lo que yo senti 
 
|--------------------| 
|--------------------| 
|--------------------| x20 
|------7-8-7---------| 
|-8-10-------10-8-10-| 
|--------------------| 
 

		  

Full key step upFull key step up
Half key step upHalf key step up
Half key step downHalf key step down
Full key step downFull key step down
hide glossary

See also:

tabs Liquits - Chicharos Magicos tabs Pop Corn - Te quiero junto a mi tabs Pop Corn - Juliana tabs Pop Corn - Que puedo decir tabs Akwid - Como, Cuando Y Donde tabs Division Minuscula - Las Luces De Esta Ciudad
e-chords

Other versions:

tabs Pop Corn - Juliana
auto scroll beats size up size down change color hide chords drawings
tab show chords e-chords YouTube Clip e-chords hide all tabs e-chords go to top tab

share