Pop Corn

Que puedo decir

Pop Corn

tabs

by  PANCHY-TRONIC

save to print version add songbook text version e-mail correct tuner
chordsukulelecavacokeyboardtabbassdrumsharmonicaflute Guitar Pro
close

there isn't a video lesson for this song

chords

Que puedo decir

	  		intro: D A Bm G A 
 
 
      D            A          Bm          G            A 
 
E------2----|------0----|------2----|-------3--|------0---------I 
B--------3--|--------2--|--------3--|-------3--|------2---------I 
G----2------|----2------|----4------|----0-----|---2------------I    REPITE 2 VECES 
D--0--------|-----------|-----------|----------|----------------I 
A-----------|--0--------|--2--------|----------|-0--------------I 
E-----------|-----------|-----------|--3-------|----------------I 
 
DESPUES PUEDEN TOCAR LA SIGUIENTE PARTE PERO YO PREFIERO TOCARLA SOLO ACUSTICA 
 
e---------------------------------------------------------------------| 
B---------------------------------------------------------------------| 
G---------77777--7777---9---------------------------------------------| 
D---------77777--7777---9--77777--7777-8--99999-9999-4-55555-55555----|  REPITE 2 VECES 
A---------55555--5555---7--77777--7777-8--99999-9999-4-55555-55555----| 
E--------------------------55555--5555-6--77777-7777-2-33333-33333----| 
 
 
D                 A                       Bm 
Quedo pensando en ti Después de oírte decir 
                         G 
Que has conocido a alguien Que te hace muy feliz 
D             A                  Bm 
Nada puedo decir Ya me tocaba a mí 
                   G 
Yo se lo hice alguien Y no me iba a convenir 
 
D                 A 
Yo entiendo tu razón Tal vez siempre 
         Bm 
Fue mi error Por no querer darme 
  G 
Cuenta se me rompió El corazón 
D                A                    Bm 
Hoy te pido perdón Por darte una ilusión 
                      G 
Yo también sueño contigo Lamento mi situación 
 
D A A# Bm G X 2 
 
D                  A                  Bm 
Quedo pensando en ti No se ni que sentir 
                G 
Paso tan de repente Ojala seas feliz 
D                A                    Bm 
Espero podamos ser Lo que nunca pudo ser 
               G                             A 
Amigos solo amigos No hay mas nada por hacer 
 
D                  A                          Bm 
Yo entiendo tu razón Tal vez siempre fue mi error 
                       G 
Por no querer darme cuenta Se me rompió el corazón 
D                A                    Bm 
Hoy te pido perdón Por darte una ilusión 
                      G 
Yo también sueño contigo Lamento mi situación 
 
Ohhhhhhhhhhhhhh 
 
Que puedo decir 
 
Ohhhhhhhhh 
 
Que puedo decir 
 
(AQUI REPITE LA PARTE DEL PRINCIPIO) 
 
Que fue muy lindo conocerte 
 
Y no te puedo olvidar... 
 

		  

Full key step upFull key step up
Half key step upHalf key step up
Half key step downHalf key step down
Full key step downFull key step down
hide glossary

See also:

tabs Liquits - Chicharos Magicos tabs Pop Corn - Te quiero junto a mi tabs Pop Corn - Juliana tabs Pop Corn - Que puedo decir tabs Akwid - Como, Cuando Y Donde tabs Division Minuscula - Las Luces De Esta Ciudad
e-chords

Other versions:

tabs Pop Corn - Que puedo decir
auto scroll beats size up size down change color hide chords drawings
tab show chords e-chords YouTube Clip e-chords hide all tabs e-chords go to top tab

share