Pixies

Theme from Narc

Pixies

tabs

by  HALFDOG

save to print version add songbook text version e-mail correct tuner
chordsukulelecavacokeyboardtabbassdrumsharmonicaflute Guitar Pro
close

there isn't a video lesson for this song

chords

Theme from Narc

Year: 2001 - Album: Complete B-Sides

	  		PIXIES - THEME FROM NARC 
(copyright control) recorded and mixed at Master Control, Burbank CA. 
produced by Gil Norton, engineered by Steve Haigler 
from the single Planet Of Sound , 1991 4AD Ltd. 
 
Tab. by Halfdog, [email protected] 
 
 
 
==================================================================== 
 
 
Intro: 
 
Guitar  1: 
e | --12b~~~~~~r12-12-12-12-12-12-12-12-12-12-12-12-12-12~~~~~~~~~~~ 
B | ---------------------------------------------------------------- 
G | ---------------------------------------------------------------- 
D | ---------------------------------------------------------------- 
A | ---------------------------------------------------------------- 
E | ---------------------------------------------------------------- 
 
Guitar 1: 
e | --12/ ---------------------------------------------------------- 
B | ---------------------------------------------------------------- 
G | ---------------------------------------------------------------- 
D | ---------------------------------------------------------------- 
A | ---------------------------------------------------------------- 
E | ---------------------------------------------------------------- 
 
Guitar 2: 
e | -------------------------------------------------------------------- 
B | -------------------------------------------------------------------- 
G | -------------------------------------------------------------------- 
D | -------------------------------------------------------------------- 
A | -------------------------------------------------------------------- 
E | -----0-0-0-0-0-0-0-0-0-0-0-0-0-0-0-0-0-0-0-0-0-0-0-0-0-0-0-0-0-0-0-0  
 
 
======================================================================== 
 
 
Chorus: 
Lyrics: 
Theme from narc????????.. 
 
Guitar 1: 
e | ---------------------------------------------------------------- 
B | ---------------------------------------------------------------- 
G | ---------------------------------------------------------------- 
D | -------------------------2~-4-------222-4-----222--------------- 
A | ---------------------------------------------------------------- 
E | ---------------------------------------------------------------- 
 
Guitar 2: 
e | ------------------------------------------------------------------- 
B | ------------------------------------------------------------------- 
G | ------------------------------------------------------------------- 
D | -------------------------2-2-2-2-2-2-2-2-2-2-2-2-2-2-2-2-2-2-2-2-2- 
A | -------------------------2-2-2-2-2-2-2-2-2-2-2-2-2-2-2-2-2-2-2-2-2- 
E | -------------------------0-0-0-0-0-0-0-0-0-0-0-0-0-0-0-0-0-0-0-0-0- 
 
Guitar 1: 
e | ---------------------------------------------------------------- 
B | ---------------------------------------------------------------- 
G | -----------------------------------------------4/6-6------------ 
D | -------------------------2~-4-------222-4-----2----------------- 
A | ---------------------------------------------------------------- 
E | ---------------------------------------------------------------- 
 
Guitar 2: 
e | ------------------------------------------------------------------- 
B | ------------------------------------------------------------------- 
G | ------------------------------------------------------------------- 
D | -------------------------2-2-2-2-2-2-2-2-2-2-2-2-2-2-2-2-2-2-2-2-2- 
A | -------------------------2-2-2-2-2-2-2-2-2-2-2-2-2-2-2-2-2-2-2-2-2- 
E | -------------------------0-0-0-0-0-0-0-0-0-0-0-0-0-0-0-0-0-0-0-0-0- 
 
Guitar 1: 
e | ---------------------------------------------------------------- 
B | --3~~~~-2~~~~-1~~p0--------------5~~~~-------------------------- 
G | ---------------------3-------------------7p5h7-5p4h5-4p2h4------ 
D | ---------------------------------------------------------------- 
A | ---------------------------------------------------------------- 
E | ---------------------------------------------------------------- 
 
Guitar 2: 
e | ---------------------------------------------------------------- 
B | ---------------------------------------------------------------- 
G | --7-----6-----5----3-3------------9-------9X9--9-9-------------- 
D | --7-----6-----5----3-3------------9-------9X9--9-9---7--9------- 
A | --5-----4-----3----1-1------------7-------7X7--7-7---7--9------- 
E | ----------------------------------------------------5--7-------- 
 
 
==================================================================== 
 
 
Guitar 1: 
e | ------------------------------------------------------------------ 
B | -------------------------- 8X8X8X8X8X8X8X8 -------8X8X8X8X8X8X8X8- 
G | --9-9--9-9----9-9--9-9---- 9X9X9X9X9X9X9X9 -------9X9X9X9X9X9X9X9- 
D | --9-9--9-9----9-9--9-9---- 9X9X9X9X9X9X9X9 -------9X9X9X9X9X9X9X9- 
A | --7-7--7-7----7-7--7-7---- 7X7X7X7X7X7X7X7 -------7X7X7X7X7X7X7X7- 
E | ------------------------------------------------------------------ 
 
 
Guitar 2: 
e | ------------------------------------------------------------------------ 
B | ------------------------------------------------------------------------ 
G | ------------------------------------------------------------------------ 
D | --2-2--2-2----2-2--2-2----2-2-2-2-2-2-2-2-2-2-2-2-2-2-2-2-2-2-2-2-2-2-2- 
A | --2-2--2-2----2-2--2-2----2-2-2-2-2-2-2-2-2-2-2-2-2-2-2-2-2-2-2-2-2-2-2- 
E | --0-0--0-0----0-0--0-0----0-0-0-0-0-0-0-0-0-0-0-0-0-0-0-0-0-0-0-0-0-0-0- 
 
 
============================================================================ 
 
Guitar 2: 
e | --------------------------------------------------------------------- 
B | --------------------------------------------------------------------- 
G | --------------------------------------------------------------------- 
D | --------------------------------------------------------------------- 
A | --------------------------------------------------------------------- 
E | -----0-0-0-0-0-0-0-0-0-0-0-0-0-0-0-0-0-0-0-0-0-0-0-0-0-0-0-0-0-0-0-0- 
 
 
========================================================================== 
 
Chorus 
Lyrics: 
Theme from narc............. 
 
Guitar 1: 
e | ---------------------------------------------------------------- 
B | ---------------------------------------------------------------- 
G | ---------------------------------------------------------------- 
D | -------------------------2~-4-------222-4-----222--------------- 
A | ---------------------------------------------------------------- 
E | ---------------------------------------------------------------- 
 
Guitar 2: 
e | ------------------------------------------------------------------- 
B | ------------------------------------------------------------------- 
G | ------------------------------------------------------------------- 
D | -------------------------2-2-2-2-2-2-2-2-2-2-2-2-2-2-2-2-2-2-2-2-2- 
A | -------------------------2-2-2-2-2-2-2-2-2-2-2-2-2-2-2-2-2-2-2-2-2- 
E | -------------------------0-0-0-0-0-0-0-0-0-0-0-0-0-0-0-0-0-0-0-0-0- 
 
 
Guitar 1: 
e | ---------------------------------------------------------------- 
B | ---------------------------------------------------------------- 
G | -----------------------------------------------4/6-6------------ 
D | -------------------------2~-4-------222-4-----2----------------- 
A | ---------------------------------------------------------------- 
E | ---------------------------------------------------------------- 
 
Guitar 2: 
e | ------------------------------------------------------------------- 
B | ------------------------------------------------------------------- 
G | ------------------------------------------------------------------- 
D | -------------------------2-2-2-2-2-2-2-2-2-2-2-2-2-2-2-2-2-2-2-2-2- 
A | -------------------------2-2-2-2-2-2-2-2-2-2-2-2-2-2-2-2-2-2-2-2-2- 
E | -------------------------0-0-0-0-0-0-0-0-0-0-0-0-0-0-0-0-0-0-0-0-0- 
 
Guitar 1: 
e | ---------------------------------------------------------------- 
B | --3~~~~-2~~~~-1~~p0--------------5~~~~-------------------------- 
G | ---------------------3-------------------7p5h7-5p4h5-4p2h4------ 
D | ---------------------------------------------------------------- 
A | ---------------------------------------------------------------- 
E | ---------------------------------------------------------------- 
 
Guitar 2: 
e | ----------------------------------------------------------------- 
B | ----------------------------------------------------------------- 
G | --7-----6-----5----3-3------------9-------9X9--9-9--------------- 
D | --7-----6-----5----3-3------------9-------9X9--9-9---7--9-------- 
A | --5-----4-----3----1-1------------7-------7X7--7-7---7--9-------- 
E | ----------------------------------------------------5--7--------- 
 
 
============================================================================= 
 
 
End: 
 
Guitar 1: 
e | ------------------------------------------------------------------------- 
B | ------------------------------------------------------------------------- 
G | ------------------------------------------------------------------------- 
D | ------------------------------------------------------------------------- 
A | -2p1h2-1h2p1-2p1h2-1h2p1-2p1h2-1h2p1-2p1h2-1h2p1-2p1h2-1h2p1-2p1h2-1h2p1- 
E | ------------------------------------------------------------------------- 
 
Guitar 2: 
e | ---------------------------------------------------------------- 
B | ---------------------------------------------------------------- 
G | ---------------------------------------------------------------- 
D | -10-9----------------------------------------------------------- 
A | -10-9-- ( 9 X)  ------------------------------------------------ 
E | -8--7----------------------------------------------------------- 
 
 
Guitar 1: 
e | ---------------------------------------------------------------- 
B | ---------------------------------------------------------------- 
G | ---------------------------------------------------------------- 
D | ---------------------------------------------------------------- 
A | -0~~~~~~~~~~~--------------------------------------------------- 
E | ---------------------------------------------------------------- 
 
Guitar 2: 
e | ----------------------------------------------------------------- 
B | ----------------------------------------------------------------- 
G | -2~~~~~~~~~~----------------------------------------------------- 
D | -2~~~~~~~~~~----------------------------------------------------- 
A | -0~~~~~~~~~~----------------------------------------------------- 
E | ----------------------------------------------------------------- 
 

		  

Full key step upFull key step up
Half key step upHalf key step up
Half key step downHalf key step down
Full key step downFull key step down
hide glossary

See also:

tabs Wheatus - Teenage Dirtbag tabs James Blunt - Wisemen tabs Candlebox - Far behind tabs Slash Snakepit - Godfather Theme tabs Hoobastank - Disappear tabs Iron Butterfly - IronButterfly-in A Gadda Da Vida
e-chords

Other versions:

tabs Pixies - Theme from Narc
auto scroll beats size up size down change color hide chords drawings
tab show chords e-chords YouTube Clip e-chords hide all tabs e-chords go to top tab

share