Pixies

Ed Is Dead

Pixies

tabs

by  EMILBLASTER

save to print version add songbook text version e-mail correct tuner
chordsukulelecavacokeyboardtabbassdrumsharmonicaflute Guitar Pro
close

there isn't a video lesson for this song

chords

Ed Is Dead

Year: 1987 - Album: Come on Pilgrim

	  		ED IS DEAD 
  
 
G                          C (for 3 strums) 
 Her head is in a bitter way 
 
 A              F   F# 
 ----------------------------------------- 
 ----------------------------------------- 
 ------------>>>10--8--------------------- 
 ----------------------------------------- 
 ----------------------------------------- 
 ----------------------------------------- 
 Her brain's on fire 
  
 G                                      C (3 strums) 
 ----------------------------------------- 
 ----------------------------------------- 
 ------5---4------------------------------ 
 -5------------5----3--h5----------------- 
 ----------------------------------------- 
 ----------------------------------------- 
 She's just looking for the perfect wave 
 
 A                        F    F# 
 ----------------------------------------- 
 ----------------------------------------- 
 ------5---4----------->>>10--8----------- 
 -5------------5----3--------------------- 
 ----------------------------------------- 
 ----------------------------------------- 
 It's her brain's desire 
 
I'll think of her when I walk the strand 
On this true hormos a night 
 
Ed is dead  (4x) 
 
She's just rotting in stupid bliss 
With music on her bars uh 
Her face burning in the L.A. sun 
She got no got no fear of cars 
I better kick my strand cruiser 
To the friendlier oh oh oh oh oh oh 
 
Ed is dead  (4x) 
 
Ed is dead 
Ed is, yeah Ed is 
Ed is dead  (3x) 
E.I.D.  (3x) 
 
No, no, no, no, no 
 
Lead guitar bits are just a high G note with a little string bending. 
		  

Full key step upFull key step up
Half key step upHalf key step up
Half key step downHalf key step down
Full key step downFull key step down
hide glossary

See also:

tabs Wheatus - Teenage Dirtbag tabs James Blunt - Wisemen tabs Candlebox - Far behind tabs Slash Snakepit - Godfather Theme tabs Hoobastank - Disappear tabs Iron Butterfly - IronButterfly-in A Gadda Da Vida
e-chords

Other versions:

tabs Pixies - Ed Is Dead
auto scroll beats size up size down change color hide chords drawings
tab show chords e-chords YouTube Clip e-chords hide all tabs e-chords go to top tab

share