Pixies

Caribou

Pixies

tabs Intermediate intermediate

by  EMILBLASTER

save to print version add songbook text version e-mail correct tuner
chordsukulelecavacokeyboardtabbassdrumsharmonicaflute Guitar Pro
close

there isn't a video lesson for this song

chords

Caribou

	  		CARIBOU 
 
Intro: 
 
e---0-0---0-0-0---0-0-0---0-0---0-0---0-0-0-0-0-0-0-0- 
B-5-5-4\2-2-0-1-5-5-5-4\2-0-0-5-5-4\2-2-0-1-5-7-8-7-5- 
G-------------0-------------1-------------0----------- 
D-------------2-------------2-------------2----------- 
A-------------3-------------2-------------3----------- 
E---------------------------^------------------------- 
			    ^whammy down 
 
G	Cm	G	Cm	 
 
e-3---3---3-------- 
B-3h4-3h4-3h4---7b6  				 
G-5---5---5--------           		        	 
D------------------      
A------------------ 
E------------------ 
 
G     Cm        G      Cm	 
I live cement,	I hate this street 
G     Cm	 G      Cm 
Give dirt to me, I bite lament 
G     Cm	G      Cm 
This human form, Where I was born, 
G     Cm	G      Cm 
I now repent,   
        
 
Chorus: 
       G   Cm   G   Cm      G   Cm   G   Cm 
Cari-bou		Cari-bou 
       G   D#   A#   B   C#   G   D#   A#   B   C# 
Cari-bou 
D#   B   C#    D#   B   C# 
  REPENT         REPENT 
 
 
Give me white, Ground to run 
And foregone, Lets me naive 
Nothing lets, I will get 
What I like 
		  

Full key step upFull key step up
Half key step upHalf key step up
Half key step downHalf key step down
Full key step downFull key step down
hide glossary

See also:

tabs Wheatus - Teenage Dirtbag tabs James Blunt - Wisemen tabs Candlebox - Far behind tabs Slash Snakepit - Godfather Theme tabs Hoobastank - Disappear tabs Iron Butterfly - IronButterfly-in A Gadda Da Vida
e-chords

Other versions:

tabs Pixies - Caribou
auto scroll beats size up size down change color hide chords drawings
tab show chords e-chords YouTube Clip e-chords hide all tabs e-chords go to top tab

share