Pixies

Brick Is Red

Pixies

tabs

by  EMILBLASTER

save to print version add songbook text version e-mail correct tuner
chordsukulelecavacokeyboardtabbassdrumsharmonicaflute Guitar Pro
close

there isn't a video lesson for this song

chords

Brick Is Red

Year: 1988 - Album: Surfer Rosa

	  		BRICK IS RED 
 
 
Intro: 
 
-------0-0-0-0-0-0-0----12----12-----|-------0-0-0-0-0-0-0----12----12-----| 
-------5-5-5-5-5-5-5--12----12----12-|-------5-5-5-5-5-5-5--12----12----12-| 
-0-2-0--------------------14----14---|-0-2-0--------------------14----14---| 
-------------------------------------|-------------------------------------| 
-------------------------------------|-------------------------------------| 
-------------------------------------|-------------------------------------| 
 
-------0-0-0-0-0-0-0--8-7-5---------|------------------------12----12------| 
-------5-5-5-5-5-5-5--------8-7-6-5-|-------0-0-0-0-0-0-0--12----12----12--| 
-0-2-0------------------------------|-0-2-0-3-3-3-3-3-2-0------14----14----| 
------------------------------------|--------------------------------------| 
------------------------------------|--------------------------------------| 
------------------------------------|--------------------------------------| 
------------------------------------|--------------------------------------| 
 
----------------------3-3-2-3-3-2-3-3-5-5-3-5-5-3-5-|---------------------| 
-------0-0-0-0-0-0-0--------------------------------|-------0-0-0-0-0-0-0-| 
-0-2-0-3-3-3-3-2-2-0--------------------------------|-0-2-0-3-3-3-3-2-2-0-| 
----------------------------------------------------|---------------------| 
----------------------------------------------------|---------------------| 
----------------------------------------------------|---------------------| 
 
----------------17-15-12---------------------------| 
-12-----12----------------15-12--------------10----| 
-15b16--15b16-------------------14---12-9-12----12-| 
---------------------------------------------------| 
---------------------------------------------------| 
---------------------------------------------------| 
 
                                                     harm 
----------------17-15-12------------------------------*----------| 
-12-----12----------------15-12--------------10-------*----10b11-| 
-15b16--15b16-------------------14---12-9-12----12-11-*-12-------| 
-----------------------------------------------------------------| 
-----------------------------------------------------------------| 
-----------------------------------------------------------------| 
 
 
 G  A  C     G  A            G  A  C     G  A  Bm 
-3--5--8-----3--5------------3--5--8-----3--5--7--| 
-3--5--8-----3--5------------3--5--8-----3--5--7--| 
-4--6--9-----4--6------------4--6--9-----4--6--7--| 
-5--7--10----5--7-----12-----5--7--10----5--7--9--| 
-5--7--10----5--7------------5--7--10----5--7--9--| 
-3--5--8-----3--5--12~~~-----3--5--8-----3--5--7--| 
 
G  A       G 
A fist is fast 
     A       G 
And Jimmy's cast 
C    Bm 
Hang me 
 
A white moon's hot 
The other side's not 
Hang me 
Bm                            C 
It's not time for me for me to go 
It's not time for me for me to go 
No Chords 
My eyes have turned 
Just the color of  
 
G     A  C           
diamond  Just the color 
G          A        Bm 
The frayed color of ice 
 
End:                         Slide down 
-----------------------7-6-7-7-| 
-------0-0-0-0-0-0-0---8---8-8-| 
-0-2-0-3-3-3-3-2-2-0-----------| 
-------------------------------| 
-------------------------------| 
-------------------------------| 
		  

Full key step upFull key step up
Half key step upHalf key step up
Half key step downHalf key step down
Full key step downFull key step down
hide glossary

See also:

tabs Wheatus - Teenage Dirtbag tabs James Blunt - Wisemen tabs Candlebox - Far behind tabs Slash Snakepit - Godfather Theme tabs Hoobastank - Disappear tabs Iron Butterfly - IronButterfly-in A Gadda Da Vida
e-chords

Other versions:

tabs Pixies - Brick Is Red
auto scroll beats size up size down change color hide chords drawings
tab show chords e-chords YouTube Clip e-chords hide all tabs e-chords go to top tab

share