Pink Floyd

home > Pink Floyd

Dogs Tab

Pink Floyd

Difficulty: ExpertExpert

by panchocho

tuner correct add songbook print version text version save to e-mail
chordsukulelecavacokeyboardtabbassdrumsharmonicsflute Guitar Pro
chords

Dogs

(Waters/ Gilmour)

Key:  Dm More
Dogs Key AmAm
Dogs Key A#mA#m
Dogs Key BmBm
Dogs Key CmCm(one step down)
Dogs Key C#mC#m(half step down)
Dogs Key DmDm(original key)
Dogs Key D#mD#m(half step up)
Dogs Key EmEm(one step up)
Dogs Key FmFm
Dogs Key F#mF#m
Dogs Key GmGm
Dogs Key G#mG#m
	  
Tuning: DGCFAD  
  
INTRO:(fade in)  
     Dm9   
d-|--2---2---2---2--|--2---2---2---2--|--2---2---2---2--|--2---2---2---2--|    
A-|--3---3---3---3--|--3---3---3---3--|--3---3---3---3--|--3---3---3---3--|  
F-|--0---0---0---0--|--0---0---0---0--|--0---0---0---0--|--0---0---0---0--|  
C-|--2---2---2---2--|--2---2---2---2--|--2---2---2---2--|--2---2---2---2--|  
G-|--2---2---2---2--|--2---2---2---2--|--2---2---2---2--|--2---2---2---2--|  
D-|--0---0---0---0--|--0---0---0---0--|--0---0---0---0--|--0---0---0---0--|  
    
d-|--2---2---2---2--|--2---2---2---2--|--2---2---2---2--|--2---2---2---2--|  
A-|--3---3---3---3--|--3---3---3---3--|--3---3---3---3--|--3---3---3---3--|  
F-|--0---0---0---0--|--0---0---0---0--|--0---0---0---0--|--0---0---0---0--|  
C-|--2---2---2---2--|--2---2---2---2--|--2---2---2---2--|--2---2---2---2--|  
G-|--2---2---2---2--|--2---2---2---2--|--2---2---2---2--|--2---2---2---2--|  
D-|--0---0---0---0--|--0---0---0---0--|--0---0---0---0--|--0---0---0---0--|  
  
    Bbadd4  
d-|--0---0---0---0--|--0---0---0---0--|--0---0---0---0--|--0---0---0---0--|  
A-|--1---1---1---1--|--1---1---1---1--|--1---1---1---1--|--1---1---1---1--|  
F-|--0---0---0---0--|--0---0---0---0--|--0---0---0---0--|--0---0---0---0--|  
C-|--3---3---3---3--|--3---3---3---3--|--3---3---3---3--|--3---3---3---3--|  
G-|--3---3---3---3--|--3---3---3---3--|--3---3---3---3--|--3---3---3---3--|  
D-|-----------------|-----------------|-----------------|-----------------|  
  
    E7sus4  
d-|--0---0---0---0--|--0---0---0---0--|--0---0---0---0--|--0---0---0---2--|  
A-|--2---2---2---2--|--2---2---2---2--|--2---2---2---2--|--2---2---2---2--|  
F-|--4---4---4---4--|--4---4---4---4--|--4---4---4---4--|--4---4---4---4--|  
C-|--4---4---4---4--|--4---4---4---4--|--4---4---4---4--|--4---4---4---4--|  
G-|-----------------|-----------------|-----------------|-----------------|  
D-|-----------------|-----------------|-----------------|-----------------|  
  
    Ebmaj7sus4  
d-|--0---0---0---0--|--0---0---0---0--|--0---0---0---0--|--0---0---0---1--||  
A-|--1---1---1---1--|--1---1---1---1--|--1---1---1---1--|--1---1---1---1--||  
F-|--3---3---3---3--|--3---3---3---3--|--3---3---3---3--|--3---3---3---3-o||  
C-|--3---3---3---3--|--3---3---3---3--|--3---3---3---3--|--3---3---3---3-o||  
G-|-----------------|-----------------|-----------------|-----------------||  
D-|-----------------|-----------------|-----------------|-----------------||  
  
VERSE:  
  
Dm9  Badd4  E7sus4  Ebmaj7sus4  
  
SOLO 1:  
             Dm9  
e-|--------|-12----------------13------12---|-12p10--10\---------------|  
B-|--------|--------------------------------|----------------------12--|  
G-|----9---|--------------------------------|-------------------10-----|  
D-|--------|--------------------------------|--------------------------|  
A-|--------|--------------------------------|--------------------------|  
E-|--------|--------------------------------|--------------------------|  
  
e-|------------------------------------------|-----------------------------|  
B-|--13--13---12---10---12-------------------|-----------------------------|  
G-|-----------------------------10---9-------|---------9-10p9----9---------|  
D-|--------------------------------------12--|-----12---------12---12p10p8-|  
A-|------------------------------------------|-----------------------------|  
E-|------------------------------------------|-----------------------------|  
  
    Bb(addEb)  
e-|---------------------------------|--------------------------------------|  
B-|-----------------------6--6b(8)--|-----6----6-----------------------11--|  
G-|--------5--7---------------------|-------------------------------10-----|  
D-|---------------8--8--------------|----------------------------12--------|  
A-|---------------------------------|--------------------------------------|  
E-|---------------------------------|--------------------------------------|  
  
e-|-13--13-12----10--10--------13---|-----12---10---------------------------|  
B-|---------------------------------|------------------13-----10------------|  
G-|---------------------------------|-------------------------------12b(14)-|  
D-|---------------------------------|---------------------------------------|  
A-|---------------------------------|---------------------------------------|  
E-|---------------------------------|---------------------------------------|  
  
    E7sus4  
e-|-------------------------------|----------------------------------------|  
B-|-------------------------------|----------------------------------------|  
G-|------12--10--9------10p9------|----------------------------------------|  
D-|---------------------------12--|/14-------12--11-----12--/--14----------|  
A-|-------------------------------|------------------------------------12--|  
E-|-------------------------------|----------------------------------------|  
  
e-|----------------------------------------|  
B-|----------------------------------------|  
G-|----------------------------------------|  
D-|-----------------11---11--12---12--14---|  
A-|--12-----12--14-------------------------|  
E-|----------------------------------------|  
  
e-|---------------------------------------------------------------|  
B-|---------------------------------------------------------------|  
G-|-9--10p9--10--12---12-12b(14)---14-14b(16)---14-14b(16)--(17)--|  
D-|---------------------------------------------------------------|  
A-|---------------------------------------------------------------|  
E-|---------------------------------------------------------------|  
  
    Emaj7sus4  
e-|-----------------|------------------------|-13--13--12---11--10----------|  
B-|-----------------|------------------------|----------------------13---12-|  
G-|-------15----13--|-12----10--10--10---10--|------------------------------|  
D-|-----------------|------------------------|------------------------------|  
A-|-----------------|------------------------|------------------------------|  
E-|-----------------|------------------------|------------------------------|  
  
                                      Dm9  
e-|---------------------------------|-----------------------------|  
B-|--11--10-------------------------|-----------------------------|  
G-|-----------13--12--10---10b(12)--|------------------------r10--|  
D-|---------------------------------|-----------------------------|  
A-|---------------------------------|-----------------------------|  
E-|---------------------------------|-----------------------------|  
  
e-|-------------------------||  
B-|-------------------------||  
G-|-b(12)-----r10\9---------||  
D-|-------------------------||  
A-|-------------------------||  
E-|-------------------------||  
  
VERSE:  
  
Badd4  E7sus4  Ebmaj7sus4  Dm  
  
  
C  Dm  C  Dm  Bb  F  Eb  F  Eb  Dm  Dm9  C7  Dm  A  F  Em  
  
Start of Solo #2:(Double Tracked - both guitar parts)  
                  C  
e-|--12b(13)---|--12----------------|----------12-12b(13)--15-12b(13)--12---|  
B-|--13b(15)---|--13----------------|----------13-13b(15)--17-13b(15)--13---|  
G-|------------|--------------------|---------------------------------------|  
D-|------------|--------------------|---------------------------------------|  
A-|------------|--------------------|---------------------------------------|  
E-|------------|--------------------|---------------------------------------|  
  
    Dm                                             C  
e-|-12b(13)---------|------------12b(13)--------|--12----------------|  
B-|-13b(15)---------|------------13b(15)--------|--13----------------|  
G-|-----------------|---------------------------|--------------------|  
D-|-----------------|---------------------------|--------------------|  
A-|-----------------|---------------------------|--------------------|  
E-|-----------------|---------------------------|--------------------|  
  
                                            Dm  
e-|----------12-12b(13)--15-12b(13)--12---|-12b(13)------------|  
B-|----------13-13b(15)--17-13b(15)--13---|-13b(15)------------|  
G-|---------------------------------------|--------------------|  
D-|---------------------------------------|--------------------|  
A-|---------------------------------------|--------------------|  
E-|---------------------------------------|--------------------|  
  
                  C                   Bb  
e-|--12b(13)------12---------10p8--|--10------------|  
B-|--13b(15)------13---------11p10-|--11------------|  
G-|--------------------------------|----------------|  
D-|--------------------------------|----------------|  
A-|--------------------------------|----------------|  
E-|--------------------------------|----------------|  
  
e-|-10b(12)------12b(13)---(12)r10p8--|--10------------|  
B-|-11b(13)------13b(15)---(13)r11p10-|--11------------|  
G-|-----------------------------------|----------------|  
D-|-----------------------------------|----------------|  
A-|-----------------------------------|----------------|  
E-|-----------------------------------|----------------|  
  
                                                F  
e-|-10b(12)-------12b(13)---13b(15)----------|-----15b(17)--------17b(18)r17-|  
B-|-11b(13)-------13b(15)---15b(17)------13--|--13-16b(18)--------18b(20)r18-|  
G-|--------------------------------------14--|--14---------------------------|  
D-|------------------------------------------|-------------------------------|  
A-|------------------------------------------|-------------------------------|  
E-|------------------------------------------|-------------------------------|  
  
       Eb                     F  
e-|-13b(15)r13-------------|------------15b(17)------------17b(18)r17----|  
B-|-15b(16)r15-11----------|--13-----13-16b(18)------------18b(20)r18----|  
G-|------------12----------|--14-----14----------------------------------|  
D-|------------------------|---------------------------------------------|  
A-|------------------------|---------------------------------------------|  
E-|------------------------|---------------------------------------------|  
  
    Eb  
e-|-13b(15)r13---------etc..----||  
B-|-15b(16)r15-11------etc..----||  
G-|--------------------etc..----||  
D-|--------------------etc..----||  
A-|--------------------etc..----||  
E-|--------------------etc..----||  
  
INTERLUDE:  
Fig A  
|------x-2------2-2-2-----x-2--x--2-2-----x-2-----2-2------x-2-----2-2----|  
|------x-3--x---3-3-3-----x-3--x--3-3-----x-3--x--3-3------x-3--x--3-3----|  
|------x-0--x-----0-------x-0--x----0-----x-0--x----0------x-0--x--0------|  
|------x-2--x-------------x-2--x----------x-2--x-----------x-2--x---------|  
|------x-2----------------x-2-------------x-2--------------x-2--x---------|  
|----0------------------0---------------0----------------0----------------|  
  
                                                            End Figure A  
|----x-2------2-2-2-----x-2----2-2-----x-2----2-2------x-2----2-2-------|  
|----x-3--x---3-3-3-----x-3-x--3-3-----x-3-x--3-3------x-3-x--3-3-------|  
|----x-0--x-----0-------x-0-x----0-----x-0-x----0------x-0-x--0---------|  
|----x-2--x-------------x-2-x----------x-2-x-----------x-2-x------------|  
|----x-2----------------x-2------------x-2-------------x-2-x------------|  
|--0------------------0--------------0---------------0------------------|  
                               PM   PM   
|--0-x--2------0-x--3----0--0------------------------------------------|  
|--1-x--3---x--1-x--3----0--0------------------------------------------|  
|--0-x--0---x--0-x--0----5--4---4-------------4--------4---------------|  
|--3-x--2---x--3-x--2----5--4---4-----------4---4----4---4-------------|  
|--3-x--2------3-x--2-----------2---------2--------------------0-------|  
|---------------------------------2-0--------------3-----------------0-|  
  
Start of Solo #3  
  
|-12----------------------19-----20b--20-20-20----19p18h19------14pb--(14)-|  
|------------------------x------------------------------------x------------|  
|-----------------------x------------------------------------x-------------|  
|----------------------x---------------------------------------------------|  
|--------------------------------------------------------------------------|  
|--------------------------------------------------------------------------|  
  
|-------------------------------|  
|-12pb1/2----9---7-6------------|  
|-12pb1/2----9---7-6------------|  
|-------------------------------|  
|-------------------------------|  
|-------------------------------|   


	  

there isn't a video lesson for this song

request
Full key step upFull key step up
Half key step upHalf key step up
Half key step downHalf key step down
Full key step downFull key step down
Search
auto scroll beats size up size down change color hide chords drawings
tab show chords e-chords YouTube Clip e-chords hide all tabs e-chords go to top tab