Pinegrove

New Friends

Pinegrove

tabs

by  BOMBAXXX

save to print version add songbook text version e-mail correct tuner
chordsukulelecavacokeyboardtabbassdrumsharmonicaflute Guitar Pro
close

there isn't a video lesson for this song

chords

New Friends

	  		
Intro 
e|2--2---2-2--2--------------------------------------------------------------| 
B|3--3---3-3--3--------------------------------------------------------------| 
G|2--2---2-2--2--------------------------------------------------------------| 
D|0--0---0-0--0--------------------------------------------------------------| 
A|0--0---0h2--2--------------------------------------------------------------| 
E|---------------------------------------------------------------------------| 

Verse 
(is there anyone here I know....?) 
e|2--2---2-2--2-----------3-3------------------------------------------------| 
B|3--3---3-3--3-----------3-3------------------------------------------------| 
G|2--2---2-2--2-----------0-0------------------------------------------------| 
D|0--0---0-0--0-x4---0-0-----------------------------------------------------| 
A|0--0---0h2--2------2-2-----------------------------------------------------| 
E|-------------------3-3-----------------------------------------------------| 

Chorus 
(what's the worst that could happen? end of summer and I'm still in love with her) 
e|-3---2---0-----------------------------------------------------------------| 
B|-3---3---2-----------------------------------------------------------------| 
G|-0---2---2-----------------------------------------------------------------| 
D|-0---0---2-----------------------------------------------------------------| 
A|-2---0---0-----------------------------------------------------------------| 
E|-3-------------------------------------------------------------------------| 

then go back to the intro and end on the first chord(D) 

************************************ 

| x   Dead note 
| h   Hammer-on 

************************************ 
		  

See also:

tabs Deep Purple - Black Night tabs Deep Purple - Soldier Of Fortune tabs Deep Purple - Demon's Eye tabs Ira! - Envelheço na Cidade tabs Deep Purple - Smoke on the Water (correct) tabs Ira! - Tarde Vazia (Acústico)
e-chords

Other versions:

tabs Pinegrove - New Friends
auto scroll beats size up size down change color hide chords drawings
tab show chords e-chords YouTube Clip e-chords hide all tabs e-chords go to top tab

share