Pepper

Give It Up

Pepper

tabs

by  TUIRANEVES

save to print version add songbook text version e-mail correct tuner
chordsukulelecavacokeyboardtabbassdrumsharmonicaflute Guitar Pro
close

there isn't a video lesson for this song

chords

Give It Up

	  		Introdução E, B, A 

E--------------------------| 
B-(9)-(4)--(2)-------------|   
G--9---4----2--------------| 
D--9---4----2--------------| 
A--7---2----0--------------| 
E--------------------------| 


G  B  A  
E-----------------|  
B-----------------|   
G-(4)---(8)--(6)--|  
D--5-----9----7---| 
A--5-----9----7---| 
E--3-----7----5---| 

"Why'd ya have to sleep with my Dad?" 

E--7--(7)--(5)---| 
B--8---7----5----| 
G--9---7----5----| 
D-(9)--9----7----| 
A-----(9)--(7)---| 
E----------------| 

Refrão 

E-----------------|  
B-----------------|   
G-(4)---(8)--(6)--|  
D--5-----9----7---| 
A--5-----9----7---| 
E--3-----7----5---| 
		  

Full key step upFull key step up
Half key step upHalf key step up
Half key step downHalf key step down
Full key step downFull key step down
auto scroll beats size up size down change color hide chords drawings
tab show chords e-chords YouTube Clip e-chords hide all tabs e-chords go to top tab

share