Pepper

B.O.O.T.

Pepper

tabs

by  TUIRANEVES

save to print version add songbook text version e-mail correct tuner
chordsukulelecavacokeyboardtabbassdrumsharmonicaflute Guitar Pro
close

there isn't a video lesson for this song

chords

B.O.O.T.

	  		e|--------------------------------------------------------------------------| 
B|--------------------------------------------------------------------------| 
G|--------------------------------------------------------------------------| 
D|----------------------------5-3--------------------8-7---------6-5--3h5---| 
A|---5-3-------------5-3----3-----6-3-333*---6-666*-------3-333*------------| 
E|-3-----6---3-333*------6--------------------------------------------------| 

e|------------------| 
B|------------------| 
G|------------------| 
D|------------------| 
A|---5-3------------| 
E|-3-----6-3-0-1-2--| 

e|--3---3---5---3---3---| 
B|--3---4---6---4---3---| 
G|--3---5---7---5---3---| 
D|--5---5---7---5---5---| 
A|--5---3---5---3---5---| 
E|--3---------------3---| 
   x2  x2  x1   x1 x2 


"So when the the dance get hot, don't look for reasons why not..." 

e|------------------------5---3---3--------| 
B|-------------------3----6---4---3--------| 
G|-------7-----5--8--3----7---5---3--------| 
D|-5--8--7-----5--8--5----7---5---5--------| 
A|-5--8--5-----3--6-------5---3---5--------| 
E|-3--6---------------------------3--------| 

   /  /  /     /  /  / 
		  

auto scroll beats size up size down change color hide chords drawings
tab show chords e-chords YouTube Clip e-chords hide all tabs e-chords go to top tab

share