Pearl Jam

home > Pearl Jam

Ramblings Tab

Pearl Jam

Difficulty: nolevelnolevel

tuner correct add songbook print version text version save to e-mail
chordsukulelecavacokeyboardtabbassdrumsharmonicsflute Guitar Pro
chords

Ramblings

  		 
Dropped-D tuning (DADGBE) 
 
-|-------------------------------------------------------------------|-------- 
-|-------------------------------------------------------------------|-------- 
-|---5----5-----7-----5----5----7-----5----5-----7-----5----5--------|-------- 
-|---5----5-----7-----5----5----7-----5----5-----7-----5----5--------|-------- 
-|-3----3----5------3----3----5-----3----3----5------3----3----3--0--|-------- 
-|-----------0----------------0---------------0----------------3--0--|-------- 
 G1   Various talking...                           repeat as neccessary        
 
 
The actual "song" starts here... 
-|-------------------------------------------------------------------|-------- 
-|-------------------------------------------------------------------|-------- 
-|---5----5-----7-----5----5----7-----5----5-----7-----5----5--------|-------- 
-|---5----5-----7-----5----5----7-----5----5-----7-----5----5--------|-------- 
-|-3----3----5------3----3----5-----3----3----5------3----3----3--0--|-------- 
-|-----------0----------------0---------------0----------------3--0--|-------- 
 G1 See you merry christmas          no cheap ones                             
 
-|-------------------------------------------------------------------|-------- 
-|-------------------------------------------------------------------|-------- 
-|---5----5-----7-----5----5----7-----5----5-----7-----5----5--------|-------- 
-|---5----5-----7-----5----5----7-----5----5-----7-----5----5--------|-------- 
-|-3----3----5------3----3----5-----3----3----5------3----3----3--0--|-------- 
-|-----------0----------------0---------------0----------------3--0--|-------- 
 G1      Happy                                                                 
 
-|-------------------------------------------------------------------|-------- 
-|-------------------------------------------------------------------|-------- 
-|---5----5-----7-----5----5----7-----5----5-----7-----5----5--------|-------- 
-|---5----5-----7-----5----5----7-----5----5-----7-----5----5--------|-------- 
-|-3----3----5------3----3----5-----3----3----5------3----3----3--0--|-------- 
-|-----------0----------------0---------------0----------------3--0--|-------- 
 G1       Happiness         is good                 yes we like that           
 
-|----------------------------------------------------------------------|----- 
-|----------------------------------------------------------------------|----- 
-|---5----5-----7-----5----5----7-----5----5-----7-----5----5-----------|----- 
-|---5----5-----7-----5----5----7-----5----5-----7-----5----5--0--3--0--|----- 
-|-3----3----5------3----3----5-----3----3----5------3----3----0--3--0--|----- 
-|-----------0----------------0---------------0----------------0--3--0--|----- 
 G1    Happy happy happy happy happy happiness   is   good                     
 
-|-------------------------------------------------------------------------||- 
-|-------------------------------------------------------------------------||- 
-|---5--5------------------------------------------5--5--7-5---------------||- 
-|---5--5------------------------------------------5--5--7-5--5------------||- 
-|-3----------------------------------------------------------5--3--0------||- 
-|---------------------------------------------------------------3--0------||- 
 G1     Think the slayer tour is out or what? slayer tour is not out           
 
-|--------------------------------|------------------------------------------- 
-|--------------------------------|------------------------------------------- 
-|--------------------------------|------------------------------------------- 
-|--------------------------------|------------------------------------------- 
-|--------------------------------|------------------------------------------- 
-|--------------------------------|------------------------------------------- 
  More humorous talking... =)                                                  
 
 
 
_______________________________________________________ 
Contribuição: Henrique Fairbancks([email protected]) 

	  

Search Paypal
auto scroll beats size up size down change color hide chords drawings
tab show chords e-chords YouTube Clip e-chords hide all tabs e-chords go to top tab