Pearl Jam

home > Pearl Jam

Parting Ways Tab

Pearl Jam

Difficulty: nolevelnolevel

tuner correct add songbook print version text version save to e-mail
chordsukulelecavacokeyboardtabbassdrumsharmonicsflute Guitar Pro
chords

Parting Ways

Year: 2000 - Album: Live: 07-11-03 Mansfield, MA

  		-|--0--------------------------------------------------------------------|----
-|--0-------------------------------------------0-2--3-2-0---0-2---------|----
-|--1--0-1--2-1-0-1---0-1--4-4-1-2-1-----------------------2-----2-------|----
-|--2--------------------------------2-----------------------------2-----|----
-|--2----------------------------------2----0-------------------------0--|----
-|--0---------------0----------------------------------------------------|----
 Gtr.1 Verse                                                                  

-|------------------------------------------0-------------------------0--|----
-|------------------------------------------2-------------------------2--|----
-|------------------------------------------2-------------------------2--|----
-|--2---------------2-----------------------2-------------------------2--|----
-|--2---------------2-----------------------0-------------------------0--|----
-|--0---------------0----------------------------------------------------|----
 Gtr.2                                                                        

-|-------------------------------|-|------------------------------------------
-|-----0-2-0--3-2-0---0h2-0------|-|------------------------------------------
-|------------------2-------2----|-|------------------------------------------
-|----------------------------2--|-|------------------------------------------
-|--0----------------------------|-|------------------------------------------
-|-------------------------------|-|------------------------------------------
 Gtr.1                                                                        

-|--0----------------------------|-|------------------------------------------
-|--2----------------------------|-|------------------------------------------
-|--2----------------------------|-|------------------------------------------
-|--2----------------------------|-|------------------------------------------
-|--0----------------------------|-|------------------------------------------
-|-------------------------------|-|------------------------------------------
 Gtr.2                                                                        

-|-----2--2-------3-3-3----0-----------------|--------------------------------
-|-----2--2-------3-3-3----0-----------------|--------------------------------
-|-----3--3-------4-4-4----1--0-1---2-1-0-1--|--------------------------------
-|-------------------------2------2----------|--------------------------------
-|-------------------------2-----------------|--------------------------------
-|--2----------3-----------0-----------------|--------------------------------
 Gtr.1 Chorus                                                                 

-|-----2----------3--------------------------|--------------------------------
-|-----2----------3--------------------------|--------------------------------
-|-----3----------4--------------------------|--------------------------------
-|-----4----------5--------2-----------------|--------------------------------
-|-----4----------3--------2-----------------|--------------------------------
-|-----2----------3--------0-----------------|--------------------------------
 Gtr.2                                                                        

-|-----2--2-------3-3-3----0-----------------|-|------------------------------
-|-----2--2-------3-3-3----0-----------------|-|------------------------------
-|-----3--3-------4-4-4----1-----------------|-|------------------------------
-|-------------------------2-----------------|-|------------------------------
-|-------------------------2-----------------|-|------------------------------
-|--2----------3-----------0-----------------|-|------------------------------
 Gtr.1                                                                       

-|-----2----------3--------0-----------------|-|------------------------------
-|-----2----------3--------0-----------------|-|------------------------------
-|-----3----------4--------1-----------------|-|------------------------------
-|-----4----------5--------2-----------------|-|------------------------------
-|-----4----------3--------2-----------------|-|------------------------------
-|-----2----------3--------0-----------------|-|------------------------------
 Gtr.2                                                                        

-|--0----------------------------------------|-|-|----------------------------
-|--0-----3--------2-------------------------|-|-|----------------------------
-|--1-----4--------2-------------------------|-|-|----------------------------
-|--2-----4--------2-------------------------|-|-|----------------------------
-|--2--2---------0---------------------------|-|-|----------------------------
-|--0----------------------------------------|-|-|----------------------------
 Outro Gtr.1                                                                  

-|-----------------------------|-|-|------------------------------------------
-|---------3----------2h3p2p0--|-|-|------------------------------------------
-|-----------4-----------------|-|-|------------------------------------------
-|--2----4---------2-----------|-|-|------------------------------------------
-|--2--2---------0-------------|-|-|------------------------------------------
-|--0--------------------------|-|-|------------------------------------------
 Gtr.2
	  

Search Paypal
auto scroll beats size up size down change color hide chords drawings
tab show chords e-chords YouTube Clip e-chords hide all tabs e-chords go to top tab