Pearl Jam

home > Pearl Jam

Not For You Tab

Pearl Jam

Difficulty: ExpertExpert

tuner correct add songbook print version text version save to e-mail
chordsukulelecavacokeyboardtabbassdrummharmonicsflute Guitar Pro
chords

Not For You

Year: 1994 - Album: Live: 9-4-00 - Washington, DC

  		intro:
|------------------------------------5-5------------------------------
|------------------------------------0-0------------------------------
|-1--3--4----1-3--4--4-4-4--1--3--4--4-4---1--3--4--5--4--------------
|-2--4--5----2-4--5--5-5-5--2--4--5--------2--4--5--5--5--------------
|-2--4--5----2-4--5---------2--4--5--------2--4--5--------------------
|-0--0--0----0-0--0---------0--0--0--------0--0--0--------------------
this is basically used throughout the entire song

1st solo:
|---------------------------------------------------------------------
|---------------------------------------------------------------------
|---------------------------------------------------------------------
|-3-5-7-5--2-0------3-5-7-5-2-0-----3-5-7-5-2-0-----3-5-7-10----------
|--------------3--2-------------3-2-------------3-2-------------------
|---------------------------------------------------------------------
2nd solo with wah:
|-0-0-0-0--12-12-12-12--0-0-0-0--12-12-12--12--12--------12p10--------
|-0-0-0-0--12-12-12-12--0-0-0-0--12-12-12--12--12--10-12-------10-12--
|-1-1-1-1--14-14-14-14--1-1-1-1--14-14-14b-14b-14b--------------------
|-2-2-2-2---------------2-2-2-2---------------------------------------
|---------------------------------------------------------------------
|---------------------------------------------------------------------

|---------------------------------------------------------------------
|-10-12-10-8-7-5-7-8-10-10s-------------------------------------------
|---------------------------------------------------------------------
|---------------------------------------------------------------------
|---------------------------------------------------------------------
|---------------------------------------------------------------------

end:
pluck the notes in this chord:
|--------|
|--12----|
|--------|
|--9-----|
|--------|
|--------|
	  

Search Paypal
auto scroll beats size up size down change color hide chords drawings
tab show chords e-chords YouTube Clip e-chords hide all tabs e-chords go to top tab