Pearl Jam

home > Pearl Jam

Not For You Bass Tab

Pearl Jam

Difficulty: nolevelnolevel

by Apocalyptica

tuner correct add songbook print version text version save to e-mail
chordsukulelecavacokeyboardtabbassdrummharmonicsflute Guitar Pro
chords

Not For You

Year: 1994 - Album: Live: 9-4-00 - Washington, DC

  		by - pearl jam 
transcriber - William Stevens, [email protected] 
 
 
after 4 measures, come in with this 
G:----------------- 
D:----------------- 
A:--7-7-7-7-7-4-5-- 
E:----------------- 
 
try some different stuff, you know ament, he's all over the place 
G:----------------------------------- 
D:----------------------------------- 
A:--7--7-7-7-7-4-5---5-5-5-5-5-5-5/7- 
E:----------------------------------- 
 
G:------------------------------ 
D:------------------------------ 
A:--7-7-7-7-7-4-5---------5-5-4- 
E:------------------------------ 
 
 
 
last line of the verse, move into the Chorus with this 
G:------------------------------------------------------------------- 
D:------------------------------------------------------------------- 
A:--7-7-7-7-7-4-5---5-5-5-5-5-5-4-4-4-4-2-2-2-2-4-------------------- 
E:------------------------------------------------3--3-3--3-3-2------ 
 
Chorus 
G:-------------------------------------------- 
D:-------------------------------------------- 
A:-----------7-7-7-7-7------------------------ 
E:-0-0-0-0-0------------3-3-3-2-2-0----------- 
 
in the Chorus, i think jeff mixes up the 0's and 7's 
 
 
The "My friends they don't..." part, just do this: 
G:------------------------------------------------------------------ 
D:------------------------------------------------------------------ 
A:------------------------------------------------------------------ 
E:--1-1-1-1-1-1-1-1-1-1-1-1-1-1-5-5-5-5-5-5-5-5-5-5-5-5-5-5-5------- 
And repeat 
 
do another Chorus 
 
bridge 
G:----------------------------------------------------------------- 
D:--9-11-9----------------/11--9----------------------------------- 
A:---------11-9-7----------------11-9-7--------------------4-5----- 
E:----------------------------------------------------------------- 
           do this part twice                     then end with this 
 
 
And then back to the verse riff 
 
then an insane Chorus (same as other Chorus) 
 
then go into the verse riff 8 times and fade out with 
 
A:--7-7-7-7-7-7-7-7-7-7 
 
then the conclusion to a great song goes something like this 
G:------------------------------------------------------------------------------ 
D:-14--/17-19---22-21-19---17--16h17p16-14-12--17-16-12------------------------- 
A:------------------------------------------------------------------------------ 
E:------------------------------------------------------------------------------ 
 
G:------------------------------------------------------------------------------ 
D:-14----12----10----9----9----------------------------------------------------- 
A:----15----14----12---10---12-10--9---7---------------------------------------- 
E:------------------------------------------------------------------------------ 
 
well, that's about it 
i can't tell ya that ending is perfect 
but i can tell ya it's pretty damned close 
 
 

	  

Search Paypal
auto scroll beats size up size down change color hide chords drawings
tab show chords e-chords YouTube Clip e-chords hide all tabs e-chords go to top tab