Pearl Jam

home > Pearl Jam

Low Light Tab

Pearl Jam

Difficulty: nolevelnolevel

by Apocalyptica

tuner correct add songbook print version text version save to e-mail
chordsukulelecavacokeyboardtabbassdrumsharmonicsflute Guitar Pro
chords

Low Light

Year: 1998 - Album: Yield

  		Transcribed by: Chris Wilson and Evan Cowan (Solo), Rick P (tuning) 
Email: [email protected] and [email protected] 
 
Stone's tuning: EADGAD (low to high) 
 
-|--0--0--------|--0-0-0-0-0-0-0-0--|--------------|--0-0-0-0-0-0-0-0--|------ 
-|--0--0--0-----|--0-0-0-0-0-0-0-0--|--0--0--0-----|--0-0-0-0-0-0-0-0--|------ 
-|--0--0--0--0--|--0-0-0-0-0-0-0-0--|--0--0--0--0--|--0-0-0-0-0-0-0-0--|------ 
-|--5--5--0--0--|--0-0-0-0-0-0-0-0--|--5--5--0--0--|--0-0-0-0-0-0-0-0--|------ 
-|--3--2--5--5--|--5-5-5-5-5-5-5-5--|--3--2--5--5--|--5-5-5-5-5-5-5-5--|------ 
-|--------3--2--|--3-3-3-3-3-3-3-3--|--------3--2--|--3-3-3-3-3-3-3-3--|------ 
  Intro Stone                                                                  
 
-|-----------------|-----------------------|-----3-----|---------------------- 
-|-----------------|-----------------------|-----3-----|---------------------- 
-|-----------------|-----------------------|-----0-----|---------------------- 
-|--5--5--5--------|-----------------------|-----0-----|---------------------- 
-|--3--3--2--5--5--|-----------------------|-----2-----|---------------------- 
-|-----------3--2--|-----------------------|-----3-----|---------------------- 
   Mike                                      Mike's Intro and Verse Fill       
 
-|-----------------|---------------------------------------------------------- 
-|--0--0--0--0--0--|---------------------------------------------------------- 
-|--0--0--0--0--0--|---------------------------------------------------------- 
-|--5--5--5--0--0--|---------------------------------------------------------- 
-|--3--3--2--5--5--|---------------------------------------------------------- 
-|-----------3--2--|---------------------------------------------------------- 
   Stone                                                                       
 
-|------------------0-0-0-0--|--------------|--0-0-0-0-0-0-0-0--|------------- 
-|--0-0-0-0-0-0-0-0-0-0-0-0--|--0--0-----0--|--0-0-0-0-0-0-0-0--|------------- 
-|--0-0-0-0-0-0-0-0-0-0-0-0--|--0--0--0--0--|--0-0-0-0-0-0-0-0--|------------- 
-|--2-2-2-2-5-5-5-5-0-0-0-0--|--5--5--0--0--|--0-0-0-0-0-0-0-0--|------------- 
-|--2-2-2-2-3-3-3-3-5-5-5-5--|--3--2--5--5--|--5-5-5-5-5-5-5-5--|------------- 
-|--0-0-0-0---------3-3-3-3--|--------2--3--|--3-3-3-3-3-3-3-3--|------------- 
  Verse Stone                                                                  
 
-|--------------|--0-0-0-0-0-0-0-0--|------------------0-0-0-0--|------------- 
-|--0--0-----0--|--0-0-0-0-0-0-0-0--|--0-0-0-0-0-0-0-0-0-0-0-0--|------------- 
-|--0--0--0--0--|--0-0-0-0-0-0-0-0--|--0-0-0-0-0-0-0-0-0-0-0-0--|------------- 
-|--5--5--0--0--|--0-0-0-0-0-0-0-0--|--2-2-2-2-5-5-5-5-0-0-0-0--|------------- 
-|--3--2--5--5--|--5-5-5-5-5-5-5-5--|--2-2-2-2-3-3-3-3-5-5-5-5--|------------- 
-|--------2--3--|--3-3-3-3-3-3-3-3--|--0-0-0-0---------3-3-3-3--|------------- 
                                                                               
 
-|--0-0-0-0--0-0-0-0--|--0-0-0-0--0-0-0-0--|--0-0-0-0--0-0-0-0--|------------- 
-|--0-0-0-0--0-0-0-0--|--0-0-0-0--0-0-0-0--|--0-0-0-0--0-0-0-0--|------------- 
-|--2-2-2-2--0-0-0-0--|--0-0-0-0--0-0-0-0--|--2-2-2-2--0-0-0-0--|------------- 
-|--0-0-0-0--2-2-2-2--|--5-5-5-5--5-5-5-5--|--0-0-0-0--2-2-2-2--|------------- 
-|-----------2-2-2-2--|--3-3-3-3--2-2-2-2--|-----------2-2-2-2--|------------- 
-|-----------0-0-0-0--|--------------------|-----------0-0-0-0--|------------- 
  Chorus Stone                                                                 
 
-|--0-0-0-0--0-0-0-0--0-0-0-0--0-0-0-0--0-0-0-0--0-0-0-0--0-0-0-0--|---------- 
-|--0-0-0-0--0-0-0-0--0-0-0-0--0-0-0-0--0-0-0-0--0-0-0-0--0-0-0-0--|---------- 
-|--0-0-0-0--0-0-0-0--0-0-0-0--0-0-0-0--0-0-0-0--0-0-0-0--2-2-2-2--|---------- 
-|--5-5-5-5--5-5-5-5--5-5-5-5--5-5-5-5--5-5-5-5--5-5-5-5--0-0-0-0--|---------- 
-|--3-3-3-3--2-2-2-2--0-0-0-0--2-2-2-2--3-3-3-3--2-2-2-2-----------|---------- 
-|-----------------------------------------------------------------|---------- 
   Post-Chorus Stone                                                           
 
-|-------------------------------------------|-------------------------------- 
-|-------------------------------------------|-------------------------------- 
-|------0-----0-----0-----0-----0-----0---2--|-------------------------------- 
-|----2-----0-----2-----0-----2-----0-----0--|-------------------------------- 
-|--3-----2-----0-----2-----3-----2-------0--|-------------------------------- 
-|-------------------------------------------|-------------------------------- 
   Mike                                                                        
 
-|----------------|--0-0-0-0-0-0-0-0--|--------------|--0-0-0-0-0-0-0-0--|---- 
-|--0-0--0--0--0--|--0-0-0-0-0-0-0-0--|--0--0--------|--0-0-0-0-0-0-0-0--|---- 
-|--0-0--0--0--0--|--0-0-0-0-0-0-0-0--|--0--0--0--0--|--0-0-0-0-0-0-0-0--|---- 
-|--5-5--5--0--0--|--0-0-0-0-0-0-0-0--|--5--5--0--0--|--0-0-0-0-0-0-0-0--|---- 
-|--3-3--2--5--5--|--5-5-5-5-5-5-5-5--|--3--2--5--5--|--5-5-5-5-5-5-5-5--|---- 
-|----------3--2--|--3-3-3-3-3-3-3-3--|--------2--3--|--3-3-3-3-3-3-3-3--|---- 
                                                                               
 
-|-----------------------------|--------------|--0-0-0-0-0-0-0-0--|----------- 
-|--0-0-0-0--0-0-0-0--0-0-0-0--|--0--0--0--0--|--0-0-0-0-0-0-0-0--|----------- 
-|--0-0-0-0--0-0-0-0--0-0-0-0--|--0--0--0--0--|--0-0-0-0-0-0-0-0--|----------- 
-|--2-2-2-2--5-5-5-5--0-0-0-0--|--5--5--0--0--|--0-0-0-0-0-0-0-0--|----------- 
-|--2-2-2-2--3-3-3-3--5-5-5-5--|--3--2--5--5--|--5-5-5-5-5-5-5-5--|----------- 
-|--0-0-0-0-----------3-3-3-3--|--------3--2--|--3-3-3-3-3-3-3-3--|----------- 
                                                With Fills                     
 
-|--------------|--0-0-0-0-0-0-0-0--|-----------0--|-0-0-0-0-0-0-0-0-0-0-0-0|- 
-|--0--0-----0--|--0-0-0-0-0-0-0-0--|--0--0--0--0--|-0-0-0-0-0-0-0-0-0-0-0-0|- 
-|--0--0--0--0--|--0-0-0-0-0-0-0-0--|--0--0--0--0--|-0-0-0-0-0-0-0-0-0-0-0-0|- 
-|--5--5--0--0--|--0-0-0-0-0-0-0-0--|--5--5--5--0--|-2-2-2-2-5-5-5-5-0-0-0-0|- 
-|--3--2--5--5--|--5-5-5-5-5-5-5-5--|--3--3--2--5--|-2-2-2-2-3-3-3-3-5-5-5-5|- 
-|--------2--3--|--3-3-3-3-3-3-3-3--|-----------3--|-0-0-0-0---------3-3-3-3|- 
                                                                               
 
-|--3--2--0--2--3--3--2--0--|------------------------------------------------- 
-|--3--3-----3--3--3--3--3--|------------------------------------------------- 
-|--------------------------|------------------------------------------------- 
-|--------------------------|------------------------------------------------- 
-|--------------------------|------------------------------------------------- 
-|--------------------------|------------------------------------------------- 
  Fills by Mikey                                                               
 
-|--0-0-0-0--0-0-0-0--|--0-0-0-0--0-0-0-0--|--0-0-0-0--0-0-0-0--|------------- 
-|--0-0-0-0--0-0-0-0--|--0-0-0-0--0-0-0-0--|--0-0-0-0--0-0-0-0--|------------- 
-|--2-2-2-2--0-0-0-0--|--0-0-0-0--0-0-0-0--|--2-2-2-2--0-0-0-0--|------------- 
-|--0-0-0-0--2-2-2-2--|--5-5-5-5--5-5-5-5--|--0-0-0-0--2-2-2-2--|------------- 
-|-----------2-2-2-2--|--3-3-3-3--2-2-2-2--|-----------2-2-2-2--|------------- 
-|-----------0-0-0-0--|--------------------|-----------0-0-0-0--|------------- 
   Chorus Stone                                                                
 
-|--2--2----2--2---0-0----0-0--|--0--0----0--0---3--3---3--3--|--------------- 
-|--3--3----3--3---0-0----0-0--|--1--1----1--1---3--3---3--3--|--------------- 
-|--2--2----2--2---0-0----0-0--|--0--0----0--0---0--0---0--0--|--------------- 
-|--0--0----0--0---2-2----2-2--|--2--2----2--2---0--0---0--0--|--------------- 
-|-----------------2-2----2-2--|--3--3----3--3---2--2---2--2--|--------------- 
-|-----------------0-0----0-0--|--3--3----3--3---3--3---3--3--|--------------- 
  Keyboard arrang. for Guitar                                                  
 
-|--3--3-3-3--2--0--2--3-3-3--|----------------------------------------------- 
-|--3--3-3-3--3--3--3--3-3-3--|----------------------------------------------- 
-|--2--2-2-2--2--2--2--2-2-2--|----------------------------------------------- 
-|--0--0-0-0--0--0--0--0-0-0--|----------------------------------------------- 
-|----------------------------|----------------------------------------------- 
-|----------------------------|----------------------------------------------- 
                                                                               
 
-|--0-0-0-0--0-0-0-0--0-0-0-0--0-0-0-0--0-0-0-0--0-0-0-0--0-0-0-0--|---------- 
-|--0-0-0-0--0-0-0-0--0-0-0-0--0-0-0-0--0-0-0-0--0-0-0-0--0-0-0-0--|---------- 
-|--0-0-0-0--0-0-0-0--5-5-5-5--0-0-0-0--0-0-0-0--0-0-0-0--2-2-2-2--|---------- 
-|--5-5-5-5--5-5-5-5--5-5-5-5--5-5-5-5--5-5-5-5--5-5-5-5--0-0-0-0--|---------- 
-|--3-3-3-3--2-2-2-2--0-0-0-0--2-2-2-2--3-3-3-3--2-2-2-2-----------|---------- 
-|-----------------------------------------------------------------|---------- 
   Post-Chorus Stone                                                           
 
-|-------------------------------------------|-------------------------------- 
-|-------------------------------------------|-------------------------------- 
-|------0-----0-----0-----0-----0-----0---2--|-------------------------------- 
-|----2-----0-----2-----0-----2-----0-----0--|-------------------------------- 
-|--3-----2-----0-----2-----3-----2-------0--|-------------------------------- 
-|-------------------------------------------|-------------------------------- 
   Mike                                                                        
 
-|--------------|--0-0-0-0-0-0-0-0--|----------------|--0-0-0-0-0-0-0-0--|---- 
-|--0--0--0--0--|--0-0-0-0-0-0-0-0--|--0-0--0--0--0--|--0-0-0-0-0-0-0-0--|---- 
-|--0--0--0--0--|--0-0-0-0-0-0-0-0--|--0-0--0--0--0--|--0-0-0-0-0-0-0-0--|---- 
-|--5--5--0--0--|--0-0-0-0-0-0-0-0--|--5-5--5--0--0--|--0-0-0-0-0-0-0-0--|---- 
-|--3--2--5--5--|--5-5-5-5-5-5-5-5--|--3-3--2--5--5--|--5-5-5-5-5-5-5-5--|---- 
-|--------3--2--|--3-3-3-3-3-3-3-3--|----------3--2--|--3-3-3-3-3-3-3-3--|---- 
  Rhythm Behind Solo Stone                                                     
 
-|--------------|--0-0-0-0--0-0-0-0--0-0-0-0--|--------------|---------------- 
-|--0--0--0--0--|--0-0-0-0--0-0-0-0--0-0-0-0--|--0--0--0--0--|---------------- 
-|--0--0--0--0--|--0-0-0-0--0-0-0-0--0-0-0-0--|--0--0--0--0--|---------------- 
-|--5--5--0--0--|--2-2-2-2--5-5-5-5--5-5-5-5--|--5--5--0--0--|---------------- 
-|--3--2--5--5--|--2-2-2-2--3-3-3-3--5-5-5-5--|--3--2--5--5--|---------------- 
-|--------3--2--|--0-0-0-0-----------3-3-3-3--|--------2--3--|---------------- 
                                                                               
 
-|-----------------------------------------------------------------|---------- 
-|------------------------5-3---------------------------5-7-7-7-8--|---------- 
-|--4h5p4---------4h5p4--------4-4h5p4-------4h5p4-----------------|---------- 
-|--------5---5-5-------5--------------5-----------5---------------|---------- 
-|----------5----------------------------5-5---------5-------------|---------- 
-|-----------------------------------------------------------------|---------- 
   Solo Mike                                                                   
 
-|--------------------------|------------------------------------------------- 
-|--8p7p5------5------------|------------------------------------------------- 
-|---------7-7---7----------|------------------------------------------------- 
-|-----------------4-5-4----|------------------------------------------------- 
-|-----------------------5--|------------------------------------------------- 
-|--------------------------|------------------------------------------------- 
                                                                               
 
-|--0---------0---------3-------|--------------3--3--3-------------|---------- 
-|--0--0------1--1------3-------|--------------3--3--3--3--3-------|---------- 
-|--0----0----0----0----0-------|--------------4--4--4--4--4-------|---------- 
-|--2------2--2------2--0-------|--5--5-------------------------0--|---------- 
-|--2---------3---------2--2----|--3--2--5--5-----------------0----|---------- 
-|--0---------3---------3----3--|--------2--3----------------------|---------- 
   Piano arrang. for guitar                                                    
 
-|-----------|--0--0--0--|---------------------------------------------------- 
-|--0--0--0--|--0--0--0--|---------------------------------------------------- 
-|--0--0--0--|--0--0--0--|---------------------------------------------------- 
-|--5--5--0--|--2--5--0--|---------------------------------------------------- 
-|-*3--2--5--|--2--3--5--|---------------------------------------------------- 
-|--------3--|--0-----3--|---------------------------------------------------- 
                                                                               
 
-|-----------|--0-0-0-0--0-0-0-0--0-0-0-0--|---------------------------------- 
-|--0--0--0--|--0-0-0-0--0-0-0-0--0-0-0-0--|---------------------------------- 
-|--0--0--0--|--0-0-0-0--0-0-0-0--0-0-0-0--|---------------------------------- 
-|--5--5--0--|--2-2-2-2--5-5-5-5--0-0-0-0--|---------------------------------- 
-|--3--2--5--|--2-2-2-2--3-3-3-3--5-5-5-5--|---------------------------------- 
-|--------3--|--0-0-0-0-----------3-3-3-3--|---------------------------------- 
   *Stone                                                                      
 
-|--0-0-0-0--0-0-0-0--|--0-0-0-0--0-0-0-0--|--0-0-0-0--0-0-0-0--|------------- 
-|--0-0-0-0--0-0-0-0--|--0-0-0-0--0-0-0-0--|--0-0-0-0--0-0-0-0--|------------- 
-|--2-2-2-2--0-0-0-0--|--0-0-0-0--0-0-0-0--|--2-2-2-2--0-0-0-0--|------------- 
-|--0-0-0-0--2-2-2-2--|--5-5-5-5--5-5-5-5--|--0-0-0-0--2-2-2-2--|------------- 
-|-----------2-2-2-2--|--3-3-3-3--2-2-2-2--|-----------2-2-2-2--|------------- 
-|-----------0-0-0-0--|--------------------|-----------0-0-0-0--|------------- 
                                                                               
 
-|--0-0-0-0--0-0-0-0--|--0-0-0-0--0-0-0-0--|---------------------------------- 
-|--0-0-0-0--0-0-0-0--|--0-0-0-0--0-0-0-0--|---------------------------------- 
-|--0-0-0-0--0-0-0-0--|--2-2-2-2--0-0-0-0--|---------------------------------- 
-|--5-5-5-5--5-5-5-5--|--0-0-0-0--2-2-2-2--|---------------------------------- 
-|--3-3-3-3--2-2-2-2--|-----------2-2-2-2--|---------------------------------- 
-|--------------------|-----------0-0-0-0--|---------------------------------- 
                                                                               
 
-|--2--2---2--2---0-0---0-0--|--0--0---0--0---3--3---3--3--|------------------ 
-|--3--3---3--3---0-0---0-0--|--1--1---1--1---3--3---3--3--|------------------ 
-|--2--2---2--2---0-0---0-0--|--0--0---0--0---0--0---0--0--|------------------ 
-|--0--0---0--0---2-2---2-2--|--2--2---2--2---0--0---0--0--|------------------ 
-|----------------2-2---2-2--|--3--3---3--3---2--2---2--2--|------------------ 
-|----------------0-0---0-0--|--3--3---3--3---3--3---3--3--|------------------ 
  Keyboard arrang. for Guitar                                                  
 
-|--2--3-3-3--2--0--2--3-3-3--2--0--|--0-0--0-0---3-3--3-3--|----------------- 
-|--3--3-3-3--3--3--3--3-3-3--3--3--|--1-1--1-1---3-3--3-3--|----------------- 
-|--2--2-2-2--2--2--2--2-2-2--2--2--|--0-0--0-0---0-0--0-0--|----------------- 
-|--0--0-0-0--0--0--0--0-0-0--0--0--|--2-2--2-2---0-0--0-0--|----------------- 
-|----------------------------------|--3-3--3-3---2-2--2-2--|----------------- 
-|----------------------------------|--3-3--3-3---3-3--3-3--|----------------- 
                                                                               
 
-|--2--2---2--2---0-0---0-0--|------------------------------------------------ 
-|--3--3---3--3---0-0---0-0--|------------------------------------------------ 
-|--2--2---2--2---0-0---0-0--|------------------------------------------------ 
-|--0--0---0--0---2-2---2-2--|------------------------------------------------ 
-|----------------2-2---2-2--|------------------------------------------------ 
-|----------------0-0---0-0--|------------------------------------------------ 
                                                                               
 
-|--2---2--0---0--|--0---0---3---3-----------------|---2---2--0---0--|-------- 
-|--3---3--0---0--|--1---1---3---3-----------------|---3---3--0---0--|-------- 
-|--2---2--0---0--|--0---0---0---0--0-0---0--------|---2---2--0---0--|-------- 
-|--0---0--2---2--|--2---2---0---0------0---0------|---0---0--2---2--|-------- 
-|---------2---2--|--3---3---2---2------------2----|----------2---2--|-------- 
-|---------0---0--|--3---3---3---3--------------3--|----------0---0--|-------- 
   Piano arrang. for Guitar                                                    
 
-|--0--0---3--3--|--2--2--0-0---0-0--|---------------------------------------- 
-|--1--1---3--3--|--3--3--0-0---0-0--|---------------------------------------- 
-|--0--0---0--0--|--2--2--0-0---0-0--|---------------------------------------- 
-|--2--2---0--0--|--0--0--2-2---2-2--|---------------------------------------- 
-|--3--3---2--2--|--------2-2---2-2--|---------------------------------------- 
-|--3--3---3--3--|--------0-0---0-0--|---------------------------------------- 
                                                                               
 
-|--0-0-0-0--0-0-0-0--0-0-0-0--0-0-0-0--0-0-0-0--0-0-0-0--0-0-0-0--0-0-0-0-|-- 
-|--0-0-0-0--0-0-0-0--0-0-0-0--0-0-0-0--0-0-0-0--0-0-0-0--0-0-0-0--0-0-0-0-|-- 
-|--0-0-0-0--0-0-0-0--0-0-0-0--0-0-0-0--0-0-0-0--0-0-0-0--0-0-0-0--0-0-0-0-|-- 
-|--5-5-5-5--5-5-5-5--5-5-5-5--5-5-5-5--5-5-5-5--5-5-5-5--5-5-5-5--5-5-5-5-|-- 
-|--3-3-3-3--2-2-2-2--0-0-0-0--2-2-2-2--3-3-3-3--2-2-2-2--0-0-0-0--2-2-2-2-|-- 
-|-------------------------------------------------------------------------|-- 
   Post-Chorus Stone                                                           
 
-|--0-0-0-0--0-0-0-0--0-0-0-0-|-0-0-0-0-0-0-0-0-0-|--------------------------- 
-|--0-0-0-0--0-0-0-0--0-0-0-0-|-0-0-0-0-0-0-0-0-0-|--------------------------- 
-|--0-0-0-0--0-0-0-0--2-2-2-2-|-2-2-2-2-2-2-2-2-2-|--------------------------- 
-|--5-5-5-5--5-5-5-5--0-0-0-0-|-0-0-0-0-0-0-0-0-0-|--------------------------- 
-|--3-3-3-3--2-2-2-2----------|-------------------|--------------------------- 
-|----------------------------|-------------------|--------------------------- 
                                                                               
 
-|-------------------------------------------------------------------|-------- 
-|-------------------------------------------------------------------|-------- 
-|------0-----0-----0-----0-----0-----0-----0-----0-----0-----0---2--|-------- 
-|----2-----0-----2-----0-----2-----0-----2-----0-----2-----0-----0--|-------- 
-|--3-----2-----0-----2-----3-----2-----0-----2-----3-----2-------0--|-------- 
-|-------------------------------------------------------------------|-------- 
   Mike                                                          let ring      
 
-|--0----0-0-0-0-0-0--|------------------------------------------------------- 
-|--0----0-0-0-0-0-0--|------------------------------------------------------- 
-|--1h2--2-2-2-2-2-2--|------------------------------------------------------- 
-|--0----0-0-0-0-0-0--|------------------------------------------------------- 
-|--------------------|------------------------------------------------------- 
-|--------------------|------------------------------------------------------- 
   Outro Stone repeat until fade                                               
 
-|--2--3-3-3--2--0--|--------------------------------------------------------- 
-|--3--3-3-3--3--3--|--------------------------------------------------------- 
-|--2--2-2-2--2--2--|--------------------------------------------------------- 
-|--0--0-0-0--0--0--|--------------------------------------------------------- 
-|------------------|--------------------------------------------------------- 
-|------------------|--------------------------------------------------------- 
   Keyboard arrang. for guitar repeat until fade.....                          
	  

Search Paypal
auto scroll beats size up size down change color hide chords drawings
tab show chords e-chords YouTube Clip e-chords hide all tabs e-chords go to top tab