Pearl Jam

home > Pearl Jam

Low Light Bass Tab

Pearl Jam

Difficulty: nolevelnolevel

by Apocalyptica

tuner correct add songbook print version text version save to e-mail
chordsukulelecavacokeyboardtabbassdrumsharmonicsflute Guitar Pro
chords

Low Light

Year: 1998 - Album: Yield

  		Transcribed by: Shaun Boer 
Email: [email protected] 
 
I've just tabbed out one verse, and the first and last Chorus'. 
The other verses are pretty much the same with just slight 
variations - eg: octives and stuff. 
 
The last Chorus is just an extended version of the first, but 
it's here anyway... 
 
Email me with comments or suggestions. 
 
G|---------|-----------------|-----------------|----------------|------------- 
D|----5-5--|------------5-5--|-----------------|------------5-5-|------------- 
A|---------|--3-2------------|--3-2-------3----|--3-2-----------|------------- 
E|--3------|------3-2-3------|------3-2-0---3--|------3-2-3-----|------------- 
  Verse                                                                        
 
-|----------------|------------------|---------------------------------------- 
-|----------------|------------------|---------------------------------------- 
-|--3-2-----------|--3-2-----3-------|---------------------------------------- 
-|------2-3--3-3--|------3-0---3--3--|---------------------------------------- 
                                                                               
 
-|-----------------------------------------------------|--------------------|- 
-|-----------------------------------------------------|--------------------|- 
-|--5--5--/--7--7--\--3--3--2--2--/--5--5--/--7--7--\--|--3-2-0-2-3-2--/--5-|- 
-|-----------------------------------------------------|--------------------|- 
  1st Chorus                                                                   
 
-|--------------------------------------------------------|------------------- 
-|--------------------------------------------------------|------------------- 
-|--5--5--/--7--7--\--3--3--2--2--/--5--5--/--7--7--7--\--|------------------- 
-|--------------------------------------------------------|------------------- 
  Last Chorus                                                                  
 
-|-----------------------|-----------------------------|--------------|------- 
-|-----------------------|-----------------------------|--------------|------- 
-|--3-2-0-2-3-2-0-2-3-2--|--5-5-5-5-5-5-5-5-5-5-5-5-5--|--0h5--5-5-5--|------- 
-|-----------------------|-----------------------------|--------------|------- 
                            Lots of these D's      then lots of these...       
	  

Search Paypal
auto scroll beats size up size down change color hide chords drawings
tab show chords e-chords YouTube Clip e-chords hide all tabs e-chords go to top tab