Pearl Jam

home > Pearl Jam

Leaving Here Tab

Pearl Jam

Difficulty: ExpertExpert

tuner correct add songbook print version text version save to e-mail
chordsukulelecavacokeyboardtabbassdrumsharmonicsflute Guitar Pro
chords

Leaving Here

Year: 2001 - Album: Lost Dogs: Rarities and B Sides

  		 
-|-------------------------|-----------------------|-------------------------- 
-|-------------------------|-----------------------|-------------------------- 
-|-------------------------|-----------------------|-------------------------- 
-|-----6--9--9/11-11-11-6--|-----6--9--9/11-11-11--|-------------------------- 
-|--6--4--7--7/9--9--9--4--|--6--4--7--7/9--9--9---|-------------------------- 
-|--4----------------------|--4--------------------|-------------------------- 
  Intro Stone            2x                                                    
 
-|-----------|---------------------------------------------------------------- 
-|-----------|---------------------------------------------------------------- 
-|-----------|---------------------------------------------------------------- 
-|--6--4-----|---------------------------------------------------------------- 
-|--4--2--6--|---------------------------------------------------------------- 
-|--------4--|---------------------------------------------------------------- 
  Stone and Mike                                                               
 
-|--9---x--9--9--9--9---|----------------------|------------------------------ 
-|--9---x--11-11-11-11--|----------------------|------------------------------ 
-|--10--x--11-11-11-11--|---------11-11-11-11--|------------------------------ 
-|--11--x--11-11-11-11--|--11--x--11-11-11-11--|------------------------------ 
-|--11--x--9--9--9--9---|--11--x--9--9--9--9---|------------------------------ 
-|--9---x---------------|--9---x---------------|------------------------------ 
  Stone                3x Mike               3x                                
 
-|--9---9---9---9---|---------------|----------------------------------------- 
-|--9---9---9---9---|---------------|----------------------------------------- 
-|--10--10--10--10--|---------------|----------------------------------------- 
-|--11--11--11--11--|--11-11-11-11--|----------------------------------------- 
-|--11--11--11--11--|--11-11-11-11--|----------------------------------------- 
-|--9---9---9---9---|--9--9--9--9---|----------------------------------------- 
  Stone              Mike                                                      
 
-|--9---x--9--9--9--9---|--9---x--9--9--9--9---|----------------------|------- 
-|--9---x--11-11-11-11--|--9---x--12-12-12-12--|----------------------|------- 
-|--10--x--11-11-11-11--|--10--x--11-11-11-11--|---------11-11-11-11--|------- 
-|--11--x--11-11-11-11--|--11--x--11-11-11-11--|--11--x--11-11-11-11--|------- 
-|--11--x--9--9--9--9---|--11--x--9--9--9--9---|--11--x--9--9--9--9---|------- 
-|--9---x---------------|--9---x---------------|--9---x---------------|------- 
  Stone                                      2x  Mike               3x         
 
-|--9--9--9--9---|---------------|-------------------------------------------- 
-|--9--9--9--9---|---------------|-------------------------------------------- 
-|--10-10-10-10--|---------------|-------------------------------------------- 
-|--11-11-11-11--|--11-11-11-11--|-------------------------------------------- 
-|--11-11-11-11--|--11-11-11-11--|-------------------------------------------- 
-|--9--9--9--9---|--9--9--9--9---|-------------------------------------------- 
  Stone           Mike                                                         
 
-|--9--x-7-7-7-------9--9---9---|--------------------------------|------------ 
-|--9--x-9-9-9--x-x--11-11--9---|--------------------------------|------------ 
-|--10-x-9-9-9--x-x--11-11--10--|------x--9-9-9--x-x--11-11------|------------ 
-|--11-x-9-9-9--x-x--11-11--11--|--11--x--9-9-9--x-x--11-11--11--|------------ 
-|--11-x-7-7-7--x-x--9--9---11--|--11--x--7-7-7--x-x--9--9---11--|------------ 
-|--9--x--------------------9---|--9-------------------------9---|------------ 
  Verse Stone                     Mike                                         
 
-|--9------9---9--------9------9--9--9--9---|---------------------|----------- 
-|--9---x--11--11--x-x--9---x--12-11-11-11--|---------------------|----------- 
-|--10--x--11--11--x-x--10--x--11-11-11-11--|------x--11-11--x-x--|----------- 
-|--11--x--11--11--x-x--11--x--11-11-11-11--|--11--x--11-11--x-x--|----------- 
-|--11--x--9---9---x-x--11--x--9--9--9--9---|--11--x--9--9---x-x--|----------- 
-|--9-------------------9-------------------|--9------------------|----------- 
  Chorus                                  2x  Mike              4x             
 
-|--9--9--9--9---|---------------|-------------------------------------------- 
-|--9--9--9--9---|---------------|-------------------------------------------- 
-|--10-10-10-10--|---------------|-------------------------------------------- 
-|--11-11-11-11--|--11-11-11-11--|-------------------------------------------- 
-|--11-11-11-11--|--11-11-11-11--|-------------------------------------------- 
-|--9--9--9--9---|--9--9--9--9---|-------------------------------------------- 
 Stone            Mike                                                         
 
-|-------9---7--9---9---|--------------------|-------------------------------- 
-|-------9---9--11--9---|--------------------|-------------------------------- 
-|--x-x--10--9--11--10--|--x------9--11------|-------------------------------- 
-|--x-x--11--9--11--11--|--x--11--9--11--11--|-------------------------------- 
-|--x-x--11--7--9---11--|--x--11--7--9---11--|-------------------------------- 
-|--x-x--9----------9---|--x--9----------9---|-------------------------------- 
 Post-Chorus(2nd) Stone  Mike                                                  
 
-|--9---x--7--7-7--9--9--9--9--9--|------------------------------|------------ 
-|--9---x--9--9-9--11-11-11-11-9--|------------------------------|------------ 
-|--10--x--9--9-9--11-11-11-11-10-|------9-9-9--11-11-11-11------|------------ 
-|--11--x--9--9-9--11-11-11-11-11-|--11--9-9-9--11-11-11-11--11--|------------ 
-|--11--x--7--7-7--9--9--9--9--11-|--11--7-7-7--9--9--9--9---11--|------------ 
-|--9---x----------------------9--|--9-----------------------9---|------------ 
 Bridge/Solo Stone                 Mike          (Played Between Each Lick)    
 
-|----------------------------------------------------|----------------------- 
-|----------------------------------------------------|----------------------- 
-|-----9----9----9----9-11-11b13-11b13-11b13-11-9-----|----------------------- 
-|--11---11---11---11-----------------------------11--|----------------------- 
-|----------------------------------------------------|----------------------- 
-|----------------------------------------------------|----------------------- 
  Mike                                                                         
 
-|--------------------------------------------------|------------------------- 
-|--------12-------12-------12----------------------|------------------------- 
-|--11b13----11b13----11b13----13r11-9-11p9---------|------------------------- 
-|------------------------------------------9-------|------------------------- 
-|--------------------------------------------------|------------------------- 
-|--------------------------------------------------|------------------------- 
  Stone                                                                        
 
-|--9----------------------------------------|-------------------------------- 
-|-------------------------------------------|-------------------------------- 
-|----11b13r11p9---------9-11-9-11b13r11--9--|-------------------------------- 
-|---------------11-9h11---------------------|-------------------------------- 
-|-------------------------------------------|-------------------------------- 
-|-------------------------------------------|-------------------------------- 
  Mike                                                                         
 
-|------------9--------|------------------------------------------------------ 
-|------12b14---12b14--|------------------------------------------------------ 
-|-*11-----------------|------------------------------------------------------ 
-|-*11-----------------|------------------------------------------------------ 
-|---------------------|------------------------------------------------------ 
-|---------------------|------------------------------------------------------ 
 Stone Trem Pick                                                               
 
-|--9---7---4--9---|----------------|----------------------------------------- 
-|--9---7---4--9---|----------------|----------------------------------------- 
-|--10--8---5--10--|----------------|----------------------------------------- 
-|--11--9---6--11--|--11--9--6--11--|----------------------------------------- 
-|--11--9---6--11--|--11--9--6--11--|----------------------------------------- 
-|--9---7---4--9---|--9---7--4--9---|----------------------------------------- 
 Outro Stone        Mike             Repeat as Necessary                       
 
-|--9---7--9---9---|----------------|----------------------------------------- 
-|--9---9--11--9---|----------------|----------------------------------------- 
-|--10--9--11--10--|------9--11-----|----------------------------------------- 
-|--11--9--11--11--|--11--9--11-11--|----------------------------------------- 
-|--11--7--9---11--|--11--7--9--11--|----------------------------------------- 
-|--9----------9---|--9---------9---|----------------------------------------- 
  Stone              Mike               Finito!                                
 
_______________________________________________________ 
Contribuição: Erik Mendes([email protected]) 

	  

Search Paypal
auto scroll beats size up size down change color hide chords drawings
tab show chords e-chords YouTube Clip e-chords hide all tabs e-chords go to top tab