Pearl Jam

home > Pearl Jam

Jeremy Acoustic Tab

Pearl Jam

Difficulty: ExpertExpert

by europeu

tuner correct add songbook print version text version save to e-mail
chordsukulelecavacokeyboardtabbassdrumsharmonicsflute Guitar Pro
chords

Jeremy Acoustic

	  This is very simple version of this song if you want to play it just on 1 acoustic guitar. 

INTRO: 

E|-------------------------------------|-------------------------------------| 
B|-----------------10------8-----------|-----------------10------8-----------| 
G|-----------------9-------7----*5-----|-----------------9-------7----*7-----| 
D|-----------------7-------5------*5---|-----------------7-------5------*7---|         (REPEAT 2x) 
A|-0--5^7-0--------0-------0-----------|-0--5^7-0--------0-------0-----------| 
E|-------------------------------------|-------------------------------------| 

VERSE: 

E|-------------------------------------|-------------------------------------| 
B|-----------------10---------------8--|-----------------8----------------5--| 
G|-----------------9----------------7--|-----------------7----------------7--| 
D|-----------------7----------------5--|-----------------5----------------4--|         (REPEAT...) 
A|-0--5^7-0--------0----------------0--|-----------------0----------------0--| 
E|-------------------------------------|-------------------------------------| 

Chorus: 

E|-------------------------------------|-------------------------------------| 
B|--1---------3------------------------|----0--------------------------------| 
G|--0---------0---------4---------5----|----14-------------------------------| 
D|--3---------5---------2---------3----|----14-------------------------------| 
A|--3---------5---------2---------3----|----0--------------------------------| 
E|-------------------------------------|-------------------------------------| 

OUTRO: 

E|---------------------------------------------------------------------------| 
B|---------------------------------------------------------------------------| 
G|-------12------11--------7------9--------4-----5-------4-----5-------------| 
D|----14------12----12---9-----10---10---5-----7---7---5-----7---7-----------| 
A|--0-------0----------0-----0---------0-----0-------0-----0-----------------| 
E|---------------------------------------------------------------------------| 

E|---------------------------------------------------------------------------| 
B|---------------------------------------------------------------------------| 
G|-------12------11--------7------9--------4-----5-------4---------*5--------| 
D|----14------12----12---9-----10---10---5-----7---7---5------*7-------------| 
A|--0-------0----------0-----0---------0-----0-------0-----0-----------------| 
E|---------------------------------------------------------------------------| 
	  

there isn't a video lesson for this song

request
Search
auto scroll beats size up size down change color hide chords drawings
tab show chords e-chords YouTube Clip e-chords hide all tabs e-chords go to top tab