Pearl Jam

home > Pearl Jam

In Hiding Tab

Pearl Jam

Difficulty: ExpertExpert

tuner correct add songbook print version text version save to e-mail
chordsukulelecavacokeyboardtabbassdrumsharmonicsflute Guitar Pro
chords

In Hiding

  		Intro:
    A  A7sus4  Dsus4  D5 D  
E|--5--5-------5------5--5--|
B|--5--5-------8------5--7--|
G|--6--7-------7------7--7--| Play 4 times
D|--7--5-------7------7--7--|
A|--7--7-------5------5--5--|
E|--5--5-------5------5--5--|

Verse 1:
D            Dsus4   
I shut and locked the front door 
G                D
No way in or out 
D                Dsus4          
I turned and walked the hallway 
    G                           D       
And pulled the curtains down 
D               Dsus4              G              D     
I knelt and emptied the mouth of every club around 
D Dsus4 G                   D   
          But nothing's sound, 
D Dsus4 G               D
          nothing's sound 
D                           Dsus4         G              D
I stayed here when my last cab left  me, ignored all my rounds
D            Dsus4              G            D
Soon I was seeing visions and cracks along the walls
D Dsus4 G                   D   
        They were upside down

Bridge I:
    D  Dsus4   F(II)    Fsus4   G   Gsus4  F(III)    A
E|--5--5-------8--------8-------10--10-----13----\s--5-|
B|--7--8-------10-------11------12--13-----13----\l--5-|
G|--7--7-------10-------10------12--12-----14----\i--6-|
D|--7--7-------10-------10------12--12-----15----\d--7-|
A|--5--5-------8--------8-------10--10-----15----\e--7-|
E|--5--5-------8--------8-------10--10-----13----\---8-|

Bridge II:
Oh...
A               G       F#               F(I)
I swallowed my wish to keep from lying
A               G       F#                    F(I)
I swallowed my face just to keep from biting... biting, biting
A               G       F#                       F(I)
I swallowed my breath and believed I was diving, diving
A               G       F#                F(I)  
I surfaced and all around me was enlightened 

Chorus:
Em
Now...Ah.ha.ha...
A       D
I'm in hiding, yeah
A       D
I'm in hiding
A       D
I'm in hiding
A        G D
I'm in hiding

Riff (not correct, it's something you can play around with)
E|--5-5-------------5------------5------------|
B|------8-7-8-5\7-8---6\8--5\7-8--------------|
G|----------------------------------7---------|
D|--------------------------------------------|
A|--------------------------------------------|
E|--------------------------------------------|

Verse 2: (You know the drill)
D           Dsus4                       G             D  
It's been about three days now, since I've been aground
D           Dsus4                    G             D    
No longer overwhelmed and it seems so simple now
D                   Dsus4                          G      D(II) slide to
A      
It's funny when things change so much, it's all state of mind

Bridge II: 
A               G       F#               F(I)
I swallowed my words to keep from lying
A               G       F#                    F(I)
I swallowed my face just to keep from biting I, I… 
A               G       F#                       F(I)
I swallowed my breath and went deep, I was diving, I was diving 
A               G       F#               F(I)
I surfaced and all around me was enlightened 

Chorus: (same as above)
Now I'm
A       D
I'm in hiding, yeah
A       D
I'm in hiding
A       D
I'm in hiding
A        G D
I'm in hiding
A       D
I'm in hiding, yeah
A       D
I'm in hiding 
A       D
I'm in hiding
A        G D
I'm in hiding...

Outro:
E|--5-----5----8-7-------5------------|
B|--7-7-8-8--5-5-5-8-7-8-8------------|
G|--7-7-7----7-----7-7-7---7----------|
D|--7----------------------7----------|
A|--5---------------------------------|
E|--5---------------------------------|
	  

Full key step upFull key step up
Half key step upHalf key step up
Half key step downHalf key step down
Full key step downFull key step down
Search Paypal
auto scroll beats size up size down change color hide chords drawings
tab show chords e-chords YouTube Clip e-chords hide all tabs e-chords go to top tab