Pearl Jam

home > Pearl Jam

In Hiding Bass Tab

Pearl Jam

Difficulty: nolevelnolevel

by Apocalyptica

tuner correct add songbook print version text version save to e-mail
chordsukulelecavacokeyboardtabbassdrumsharmonicsflute Guitar Pro
chords

In Hiding

  		Transcribed by: Ross Duncan 
e-mail: [email protected] 
 
Bass starts at cd time approx. 9.5 seconds 
 
 Intro: 
G|------------------------------------| 
D|-/7----7-7--7----7-----7--7---7-7--7| 
A|-----7---------7---7-5------7-------| 
E|------------------------------------| 
 
 Verse: 
|----------------------------------------------------------------------- 
|-------------5-----5-5--------------------------5--5-5-5--------------- 
|-5--5-5-5--------------5-5---5-5----5--5-5-5-------------5----5-5--5-5- 
|----------3-----3----------5------5----------3----3---------5---------- 
    I shut...                          I turned... 
 
 ----------------------------------------------------------------------- 
 -------5-5---5-5---5--5--5-4--------------------------------12----12-12 
 -5-5-5-----5-----5-----------5------5------5------5------12----12------ 
 ----------------------------------------------------------------------- 
							Nothing... 
 
 --------------------------------11------------------------------------- 
 -12\------------------------12-----12----12\-------------5----5--5--5-- 
 ----5------5------5------12-----------12-----5--5-5-5-------5---------5 
 ------------------------------------------------------3---------------- 
						I stayed...	 
 
 ----------------------------------------------------------------------- 
 -------------------------5----5--5--5-5-4------------------------------ 
 -5---5-5-5---5--5-5-5-------5-------------5------5------5------5------- 
 ---5-------5----------3------------------------------------------------ 
		Soon I was...					 
 
 -------------------------------------------------------------| 
 ----12----12-12-12\------------------------------------------| 
 -12----12-----------5------5------5------5--5--5--5-5-5-5-5-5| 
 ---------------------------------------5---------------------| 
 
 Pre Chorus: 
|----------------------------------------------------------------------- 
|----------------------------------------------------------------------- 
|----------------------------------------------------------------------- 
|-5--5-5-5-5-5-5-3-3-3-2-2-2-1-1-1-1/--1-1-1-1-1-1-1-0-5--5-5-5-5-5-5-3- 
   I swallowed..					 
 
 ----------------------------------------------------------------------- 
 ----------------------------------------------------------------------- 
 ----------------------------------------------------------------------- 
 -3-3-2-2-2-1-1-1-1/--1-1-1-1-1-1-1-3-5-5-5-5-5-5-5-3-3-3-2-2-2-1-1-1--1 
 
 
 ----------------------------------------------------------------------- 
 ----3-------3--3-2-0--------------------------------------------------- 
 --3-----0h3----------4------------------------------------------------- 
 ------3----------------5--5-5-5-5-5-5-3-3-3-2-2-2-1-1-1--1/--1-1-1-1-1- 
			 I surfaced... 
 
 ------------------------------------| 
 ------------------------------------| 
 ---------7-7-7-7-7-7-7-7-7-7-7-7-7-7| 
 -1-1-1-0----------------------------| 
 
 
 Chorus: 
|----------------------------------------------------------------------- 
|----------------------------------------------------------------------- 
|---------------5--5---5-5---------------5--5---5-5--------------5--5--- 
|-5--5--5-5-5-5------5------5--5--0-5-5-------5------5--5--0-5-5------5- 
   I'm in hiding... 
 
 ------------------------| 
 ------------------------| 
 -5--5--------------5---5| 
 -------5--5--0-5-5------| 
 
 Repeat Verse with some variations 
 
 2nd Pre Chorus 
|----------------------------------------------------------------------- 
|----------------------------------------------------------------------- 
|----------------------------------------------------------------------- 
|-5--5-5-5-5-5-5-3-3-3-2-2-2-1-1-1-1/--1-1-1-1-1-1-1-3-5--5-5-5-5-5-5-3- 
 
 
 ------------------------------------------------------------------------ 
 ------------------------------------------------------------------------ 
 ------------------------------------------------------------------------ 
 -3-3-2-2-2-1-1-1-1/--1-1-1-1-1-1-1-3-5--5-5-5-5-5-5-3-3-3-2-2-0-1-1-1-1/ 
 
 
 --------------------------------------------------------------------| 
 ----------------------------------------------------3---------------| 
 -----3-2-0---3------------------------------------3-----3----3-2----| 
 -1-3-------1---3-5--5-5-5-5-5-5-3-3-3-2-2-2-1-1-1-----3---1------3-5| 
 
 Repeat Chorus twice 
 
 
 
 

	  

Search Paypal
auto scroll beats size up size down change color hide chords drawings
tab show chords e-chords YouTube Clip e-chords hide all tabs e-chords go to top tab