Pearl Jam

home > Pearl Jam

Grievance Tab

Pearl Jam

Difficulty: nolevelnolevel

tuner correct add songbook print version text version save to e-mail
chordsukulelecavacokeyboardtabbassdrumsharmonicsflute Guitar Pro
chords

Grievance

  		Pearl Jam - Grievance
Album - Binaural

Tab by ErTeius
Standard Tuning
I decided to do a tab to play this song with only one guitar...check this out!



Verse (first part):
e|--------------------------|
B|-----3--0--2--0-----------|
G|-----------------0--------|
D|--------------------------|
A|--2-----------------5--5--|
E|--0-----------------3--3--| (x4)


Verse (second part):
e|------------------------------------------|       
B|------------------------------------------|        
G|------------------------------------------|         
D|--7-6--7-6--7-6--7-6--7-6-7-6-9-9-9-9-----|       
A|--5-4--5-4--5-4--5-4--5-4-5-4-7-7-7-7-----|       
E|------------------------------------------| (x2)  
    big guy............watching me...
 
e|---------------------------------------------------------------------------|       
B|---------------------------------------------------------------------------|        
G|---------------------------------------------------------------------------|         
D|--7-6--7-6--7-6--7-6--7-6-7-6-7-6--7-6--7-6--7-6--7-6-7-6-9-9-9-9-2-2-2-2--|       
A|--5-4--5-4--5-4--5-4--5-4-5-4-5-4--5-4--5-4--5-4--5-4-5-4-7-7-7-7-2-2-2-2--|       
E|------------------------------------------------------------------0-0-0-0--|


Chorus:
e|---------------------------------------------------------|
B|--3-----3-----3-----3------------------------------------|
G|--2-----0-----2-----0------------2-----------2-----------|
D|--0-----2-----0-----2------------2-----5-----2-----5-----|
A|--0-----3-----0-----3---0--3--2--0-----5-----0-----5-----|
E|---------------------------------0-----3-----0-----3-----|


Verse (first part):
e|--------------------------|
B|-----3--0--2--0-----------|
G|-----------------0--------|
D|--------------------------|
A|--2-----------------5--5--|
E|--0-----------------3--3--| (x6)


Verse (second part):
e|-------------------------------|
B|--8--7-------------------------|
G|--------9--7--5-7-5--4-4-4-4---|
D|---------------------2-2-2-2---|
A|---------------------x-x-x-x---|
E|---------------------0-0-0-0---| (x2)


e|--------------------------------------------------------------------------------------------------------------------|
B|--8--7--10--12--12-13-12-----3--0--2--------------------------------------------------------------------------------|
G|--------------------------4-----------0-----------------------------------------------------------------------------|
D|--------------------------2----------------7-6--7-6--7-6--7-6--7-6-7-6-7-6--7-6--7-6--7-6--7-6-7-6-9-9-9-9-2-2-2-2--|
A|--------------------------x----------------5-4--5-4--5-4--5-4--5-4-5-4-5-4--5-4--5-4--5-4--5-4-5-4-7-7-7-7-2-2-2-2--|
E|--------------------------0--------------------------------------------------------------------------------0-0-0-0--| (x1)



Chorus:
e|---------------------------------------------------------|
B|--3-----3-----3-----3------------------------------------|
G|--2-----0-----2-----0------------2-----------2-----------|
D|--0-----2-----0-----2------------2-----5-----2-----5-----|
A|--0-----3-----0-----3---0--3--2--0-----5-----0-----5-----|
E|---------------------------------0-----3-----0-----3-----|


Verse:
e|-------------------------------|
B|--8--7-------------------------|
G|--------9--7--5-7-5--4-4-4-4---|
D|---------------------2-2-2-2---|
A|---------------------x-x-x-x---|
E|---------------------0-0-0-0---| (x2)

e|--------------------------|
B|--8--7--10--12--12-13-12--|
G|--------------------------|
D|--------------------------|
A|--------------------------|
E|--------------------------| (x1)

e|--------------------------|
B|-----3--0--2--0-----------|
G|-----------------0--------|
D|--------------------------|
A|--2-----------------5--5--|
E|--0-----------------3--3--| (x4)


Outro:
e|-------------------|
B|-------------------|
G|----------5---2----|
D|--2---4---5---2----|
A|--2---4---3---0----|
E|--0---2-------0----| (x8)

Solo (during the outro; if you want to play it you need a second guitar!!):
e|--0-0-0-0-7-0-0-0-0-0-0-0-7-0-0-0-0-0-0-0-7-0-0-0-5-5-5-3-3-3-2-2--|

	  

Search Paypal
auto scroll beats size up size down change color hide chords drawings
tab show chords e-chords YouTube Clip e-chords hide all tabs e-chords go to top tab