Pearl Jam

home > Pearl Jam

Grievance Bass Tab

Pearl Jam

Difficulty: nolevelnolevel

by Apocalyptica

tuner correct add songbook print version text version save to e-mail
chordsukulelecavacokeyboardtabbassdrumsharmonicsflute Guitar Pro
chords

Grievance

  		Transcribed by: Ross Duncan 
e-mail: [email protected] 
 
 Bass enters after drum intro, cd time 5 seconds 
 
 Verse:					     Pre-Chorus: 
G|------------------------------------------|----------------------------- 
D|------------------------------------------|----------------------------- 
A|------------------------------------------|--5-4--5-4--5-4--5-4--5-4-5-4 
E|-0------3---0------3---0------3---0------3|----------------------------- 
      Have a....                              Big eye... 
 
 ------------------------------------------------------------------------ 
 ------------------------------------------------------------------------ 
 -7-7-7-7-7-7-7-7-7-7-7-7-7-7-7-7--5-4--5-4--5-4--5-4--5-4-5-4-7-7-7-7-7- 
 ------------------------------------------------------------------------ 
				   Have to... 
 
 ------------------------------------------------------------------------ 
 ------------------------------------------------------------------------ 
 -7-7-7-7-7-7-7-7-7-7-7-5-4--5-4--5-4--5-4--5-4-5-4-5-4--5-4--5-4--5-4--5 
 ------------------------------------------------------------------------ 
			Progress laced... 
 
 ------------------------------------------------------------------------ 
 ------------------------------------------------------------------------ 
 -4-5-4--7-7-7-7-7-7-7-7-7-7-7-7-7-7-7-7--------------------------------- 
 ----------------------------------------0-0-0-0-0-0-0-0-0-0-0-0-0-0-0-0- 
 
  Chorus: 
 |------------------------------------------------------------------------ 
 |-------------------------5-4-5------------------------------------------ 
 |-5------------------5-/7------------------------------------------------ 
 |-------5--5--5-5-5-------------8-7-5--5--5-5-5-7--7--7-7-7-5--5--5-5-5-3 
     Pull the...				If they fail... 
 
 ----------|-------------------------------------------------------------- 
 ----------|-------------------------------------------------------------- 
 ----------|-------------------------------------------------------------- 
 --3--3-3-3|--0------3---0------3---0------3---0------3---0------3---0---- 
				       For every... 
	Bridge: 
 ------|------------------------------------------------------------------ 
 ------|------------------------------------------------------------------ 
 ------|------------------------------------------------------------------ 
 -3-3/-|-----------------0--0-0-0-0-0-0-0-0-0-0-0-0-0--------------------- 
       I pledge...				      Cause you don't... 
 
 ------------------------------------------------------------------------ 
 ---------------------------------17-17-17-16-16-16-14-14-14-12-12-12-11- 
 ------------------------------------------------------------------------ 
 -0--0-0-0-0-0-0-0-0-0-0-0-0-0-0----------------------------------------- 
				  We're all deserving... 
 
 -------------------| 
 -12-11/------------| 
 -------------------| 
 --------0--0--0-0-0| 
 
 Repeat Pre-Chorus, 
 Repeat Chorus, 
 Repeat Bridge, 
 
  Outro: 
 |------------------------------------------------| 
 |------------------------------------------------|Play this 
 |-------------------------3--3--3-3-2------------|part four times 
 |-0--0--0-0-0-2--2--2-2-2-------------3-5--5--5-5| 
 
 
 |--------------------------------------------------| 
 |--------------------------------------------------|Play once 
 |-7--7--7-7-7--5--5--5-5-5--3--3--3-3-2------------| 
 |---------------------------------------5--5--5-5-5| 
 
 Repeat first part of Outro three more times. 
	  

Search Paypal
auto scroll beats size up size down change color hide chords drawings
tab show chords e-chords YouTube Clip e-chords hide all tabs e-chords go to top tab