Pearl Jam

home > Pearl Jam

Green Disease Tab

Pearl Jam

Difficulty: nolevelnolevel

tuner correct add songbook print version text version save to e-mail
chordsukulelecavacokeyboardtabbassdrumsharmonicsflute Guitar Pro
chords

Green Disease

Year: 2002 - Album: Riot Act

  		 
Introdução:   
----------0------------- 
------------------------ 
---2-0h2---------------- 
------------------------  ... 
------------------------ 
------------------------ 
 
 
Verso: (C# E G# D#) 
------------------------------- 
------------------------------- 
--6-6---9-9---------8-8-------- 
--6-6---9-9---6-6---8-8-------- ... 
--4-4---7-7---6-6---6-6-------- 
--------------4-4-------------- 
 
 
------------------------------- 
------------------x------------ 
--6-6----4-4------2------------ 
--6-6----2-2------2------------ 
--4-4----2-2------0------------ 
------------------------------- 
 
 
INTRODUÇÃO: 
 
 
VERSO: (C# E G# D#) 
--------------------------------- 
---------9------9-----9-----7---- 
------9-------9-----8-----8------ 
--11--------9-----9-----9-------- 
--------------------------------- 
--------------------------------- 
 
 
 
REFRÃO:  
 
      A    E        A     E              D   E 
well i guess there's nothing wrong with what you say 
 
        A     E        A     E          D 
but don't sell me, "there can't be better ways" 
 
         A     E        A    E            D      
tell the captain, "the boat's not safe, we're drowning" 
 
     A    E        A   E          D      (A4+ A) 
turns out he's the one making waves, waves, waves... 
 
 
INTRODUÇÃO: 
 
REFRÃO: (só que outra letra) 
 
 
 
FIM 
 
 
 
_______________________________________________________ 
Contribuição: Robin Finck Nit([email protected]) 
	  

Full key step upFull key step up
Half key step upHalf key step up
Half key step downHalf key step down
Full key step downFull key step down
Search Paypal
auto scroll beats size up size down change color hide chords drawings
tab show chords e-chords YouTube Clip e-chords hide all tabs e-chords go to top tab