Pearl Jam

home > Pearl Jam

Green Disease Bass Tab

Pearl Jam

Difficulty: nolevelnolevel

by Apocalyptica

tuner correct add songbook print version text version save to e-mail
chordsukulelecavacokeyboardtabbassdrumsharmonicsflute Guitar Pro
chords

Green Disease

Year: 2002 - Album: Riot Act

  		Transcribed By: Ross Duncan 
email: [email protected] 
 
 
  Standard tuning, with pick 
 
  Intro: 
|--2-2-2-2-2-2-2-2-2-2-2-2-2-2-2-2---------------------------------| 
|------------------------------------------------------------------| 
|----------------------------------0-0-0-0-0-0-0-0-0-0-0-0-0-0-0-0-| 
|------------------------------------------------------------------| 
 
 
  Bulid up 1: 
|----------------------------------------------------------------------------- 
|-2-222-2-2-2--4-444-4-4-4--5-555-5-5-5--7-7-7-10-7-7-7--2-222-2-2-2--4-444-4- 
|----------------------------------------------------------------------------- 
|----------------------------------------------------------------------------- 
 
 
  -------------------------------| 
  -4-4--5-555-5-5-5--7-777-7-7-7-| 
  -------------------------------| 
  -------------------------------| 
 
 
 
  Verse: 
|--------------------------------------------------------------------------- 
|-----------------2-2-2-2-2-2-2-2-/6-6-6-6-6-6-6-6-------------------------- 
|-4-4-4-4-4-4-4-4----------------------------------6-6-6-6-6-6-6-6--4---2-4- 
|---------------------------------------------------------------------4----- 
 
                                       x2    2nd Verse 
  ---------------------------------------|  |---------------------| 
  ---------------------------------------|  |---------------------| 
  -2-4-2-4--4-4-4--7---6-7-6-7-6-7--7-7-7|  |-7---6-7-6-7-6-7-7-7-| 
  -------------------7-------------------|  |---7-----------------| 
 
Repeat Intro 
Repeat Verse 
 
 
  Chorus: 
|--------------------------------------------------------------------------- 
|--------------------------------------------------------------------------- 
|--------------------5-5-5-7-7/7-7/7-7/7-7/7-7/7-7/7-7/7-7------------------ 
|-5-0--0--5-5-5-0--0---------------------------------------5-0--0--5-5-5--0- 
 
                                   x2                                   x4 
  -----------------------------------|------------------------------------| 
  -----------------------------------|------------------------------------| 
  ---5-5-5-5-5-5-5-5-5-5-5-5-5-5-5-5-|-/12-12--12--12-12--12-12-12-12--12-| 
  -0---------------------------------|------------------------------------| 
 
 
  Build up 2: 
|-------------------------------------------------------------------------- 
|-2-2-2-2-2-2-2-2--4-4-4-4-4-4-4-4--5-5-5-5-5-5-5-5--7-7-7-7-7-7-7-7--2-2-- 
|-------------------------------------------------------------------------- 
|-------------------------------------------------------------------------- 
 
 
   
-----------------------------------------------------7/9-9-9--/9-9/9-9-9\-| 
   
-4-4--5-5--7--2-2-2--4-4--5-5--7--2-2-2--4-4--5-5--7----------------------| 
   
--------------------------------------------------------------------------| 
   
--------------------------------------------------------------------------| 
 
 
Repeat Chorus 
 
  Outro: 
|----------------------------------------------------------------------------------- 
|----------------------------------------------------------------------------------- 
|-/12-12-12-12-12-12-12-12-12-12-12-12-12-12-12-12--0-0-0-0-0-0-0-0-0-0-0-0-0-0-0-0- 
|----------------------------------------------------------------------------------- 
 
 
  -------------------------------------------------------| 
  -2-222-2-2-2--4-444-4-4-4--5-555-5-5-5--7-777-7-7-7--2-| 
  -------------------------------------------------------| 
  -------------------------------------------------------| 
	  

Search Paypal
auto scroll beats size up size down change color hide chords drawings
tab show chords e-chords YouTube Clip e-chords hide all tabs e-chords go to top tab