Pearl Jam

home > Pearl Jam

Do the evolution Tab

Pearl Jam

Difficulty: EasyEasy

tuner correct add songbook print version text version save to e-mail
chordsukulelecavacokeyboardtabbassdrummharmonicsflute Guitar Pro
chords

Do the evolution

  		 
Tabbed by Gilberto Rempto and Fabricio von Seehausen 
==================================================================== 
 
Man those chorus chords are hard to figure out! I'm still not sure that they're  
right! 
 
-|--------------------|-----------------|-----------------|-----------------|- 
-|--------------------|-----------------|-----------------|-----------------|- 
-|-x--0------0------8-|---0----0------8-|---0----0------8-|---0----0------8-|- 
-|-x--0------0------8-|---0----0------8-|---0----0------8-|---0----0------8-|- 
-|----x---8--x-8-10---|---x-8--x-8-10---|---x-8--x-8-10---|---x-8--x-8-10---|- 
-|---10-----10--------|-/10---10--------|-/10---10--------|-/10---10--------|- 
                                         Enter Guitar 2                        
 
-|-----------------|-----------------|-----------------|-----------------|---- 
-|-----------------|-----------------|-----------------|-----------------|---- 
-|--0-----0------8-|--0-----0------8-|--0-----0------8-|--0-----0------8-|---- 
-|--0-----0------8-|--0-----0------8-|--0-----0------8-|--0-----0------8-|---- 
-|--x--8--x-8-10---|--x--8--x-8-10---|--x--8--x-8-10---|--x--8--x-8-10---|---- 
-|-10----10--------|-10----10--------|-10----10--------|-10----10--------|---- 
  Both Guitars                                           repeat 2 times        
 
-|--------------------------------|-----------------|-----------------|------- 
-|--------------------------------|-----------------|-----------------|------- 
-|--3--3--3--3--3--3--2--2-2--1-1-|--0-----0------8-|--0-----0------8-|------- 
-|--2--2--2--2--2--2--1--1-1--0-0-|--0-----0------8-|--0-----0------8-|------- 
-|--7--7--7--7--7--7--6--6-6--5-5-|--x--8--x-8-10---|--x--8--x-8-10---|------- 
-|--8--8--8--8--8--8--7--7-7--6-6-|-10----10--------|-10----10--------|------- 
 G.1.play strings 5,6/G.2.play 3,4.                                            
 
-|-----------------|-----------------|----------------------------------|----- 
-|-----------------|-----------------|----------------------------------|----- 
-|--0-----0------8-|--0-----0------8-|--3--3--3--3--3--3--2--2-2--1--1--|----- 
-|--0-----0------8-|--0-----0------8-|--2--2--2--2--2--2--1--1-1--0--0--|----- 
-|--x--8--x-8-10---|--x--8--x-8-10---|--7--7--7--7--7--7--6--6-6--5--5--|----- 
-|-10----10--------|-10----10--------|--8--8--8--8--8--8--7--7-7--6--6--|----- 
                Repeat last 4 bars 2x  (same as before, and for all choruses)  
 
-|-----------------|-----------------|----------------------------------|----- 
-|-----------------|-----------------|----------------------------------|----- 
-|--0-----0------8-|--0-----0------8-|--3--3--3--3--3--3--2--2-2--1--1--|----- 
-|--0-----0------8-|--0-----0------8-|--2--2--2--2--2--2--1--1-1--0--0--|----- 
-|--x--8--x-8-10---|--x--8--x-8-10---|--7--7--7--7--7--7--6--6-6--5--5--|----- 
-|-10----10--------|-10----10--------|--8--8--8--8--8--8--7--7-7--6--6--|----- 
                                                                               
 
-|-----------------|-----------------|---------------------------------------- 
-|-----------------|-----------------|---------------------------------------- 
-|--0-----0------8-|--0-----0------8-|---------------------------------------- 
-|--0-----0------8-|--0-----0------8-|---------------------------------------- 
-|--x--8--x-8-10---|--x--8--x-8-10---|---------------------------------------- 
-|-10----10--------|-10----10--------|---------------------------------------- 
                                                                               
 
-|---------------------------------------------------------------|------------ 
-|---------------------------------------------------------------|------------ 
-|---------------------------------------------------------------|------------ 
-|-3b-0-0--0--0-3b-0-0--0--0-2b-0---------0-2---------3b-0-2b-0--|------------ 
-|--------------------------------3--3--3-----3-1--0-------------|------------ 
-|---------------------------------------------------------------|------------ 
 Bridge, guitar 1 
 
-|-0---0------0------0-----|---------------------------------|---------------- 
-|-3-----3------3------3---|---/15--15-----------------------|---------------- 
-|-2-------2------2------2-|-2-/14--14--14--14--14--14------|---------------- 
-|-0-----------------------|-0----------12--12--12--12------|---------------- 
-|-------------------------|-0-------------------------------|---------------- 
-|-------------------------|---------------------------------|---------------- 
 Guitar 1 <-simultaneously-> Guitar 2                                          
 
-|---------------------------------------------------------------|------------ 
-|---------------------------------------------------------------|------------ 
-|---------------------------------------------------------------|------------ 
-|-3b-0-0--0--0-3b-0-0--0--0-2b-0---------0-2---------3b-0-2b-0--|------------ 
-|--------------------------------3--3--3-----3-1--0-------------|------------ 
-|---------------------------------------------------------------|------------ 
 Guitar 1                                                                  
 
-|-0---0------0------0-----|---------------|----------------------------|----- 
-|-3-----3------3------3---|----15-----15--|----------------------------|----- 
-|-2-------2------2------2-|-2--14-----14--|----------------------------|----- 
-|-0-----------------------|-0--12-----12--|-3b-0-0--0--0-3b-0-0--0--0--|----- 
-|-------------------------|-0-------------|----------------------------|----- 
-|-------------------------|---------------|----------------------------|----- 
 Guitar 1      (same)       Guitar 2        Guitar 1                          
 
-|-------------------------------------|-0---0------0------0------|----------- 
-|-------------------------------------|-3-----3------3------3----|----------- 
-|-------------------------------------|-2-------2------2------2--|----------- 
-|-2b-0----------0-2---------3b-0-2b-0-|-0------------------------|----------- 
-|------3--3---3-----3-1--0------------|--------------------------|----------- 
-|-------------------------------------|--------------------------|----------- 
                                       Guitar 1                                
 
-|---------------|-------------------------------|-----------------|---------- 
-|----15-----15--|-------------------------------|-----------------|---------- 
-|-2--14-----14--|--3--3--3--3--3--3-2--2-2-1--1-|--0-----0------8-|---------- 
-|-0--12-----12--|--2--2--2--2--2--2-1--1-1-0--0-|--0-----0------8-|---------- 
-|-0-------------|--7--7--7--7--7--7-6--6-6-5--5-|--x--8--x-8-10---|---------- 
-|---------------|--8--8--8--8--8--8-7--7-7-6--6-|-10----10--------|---------- 
 Guitar 2                                                    Play 8x           
 
-|-----------------------------------|-0---0------0------0-----|-------------- 
-|----15------15--15----15----15-15-|-3-----3------3------3---|-------------- 
-|-------------------16----15----14-|-2-------2------2------2-|-------------- 
-|-----------------------------------|-0-----------------------|-------------- 
-|---------15------------------------|-------------------------|-------------- 
-|-----------------------------------|-------------------------|-------------- 
 "Hallelujah..."                                                               
 
-|-------------------------------------------------------------|-------------- 
-|-------------------------------------------------------------|-------------- 
-|-------------------------------------------------------------|-------------- 
-|-3b-0-0--0--0-3b-0-0--0--0-2b-0---------0-2--------3b-0-2b-0-|-------------- 
-|--------------------------------3--3--3-----3-1-0------------|-------------- 
-|-------------------------------------------------------------|-------------- 
                                                                               
 
-|-0---0------0------0-----|----------------|----------------------------|---- 
-|-3-----3------3------3---|-----15-----15--|----------------------------|---- 
-|-2-------2------2------2-|-2---14-----14--|----------------------------|---- 
-|-0-----------------------|-0---12-----12--|-3b-0-0--0--0-3b-0-0--0--0--|---- 
-|-------------------------|-0--------------|----------------------------|---- 
-|-------------------------|----------------|----------------------------|---- 
 Guit.1                    Guit.2                                              
 
-|-----------------------------------|-0---0------0------0-----|-------------- 
-|-----------------------------------|-3-----3------3------3---|-------------- 
-|-----------------------------------|-2-------2------2------2-|-------------- 
-|-2b-0---------0-2--------3b-0-2b-0-|-0-----------------------|-------------- 
-|------3--3--3-----3-1-0------------|-------------------------|-------------- 
-|-----------------------------------|-------------------------|-------------- 
                                      Guit.1                                   
 
-|----------------------14--14-|--------------------------------|------------ 
-|------15--15--15--15--15--15-|--------------------------------|------------ 
-|-2----14--14--14--14----------|--3--3--3--3--3--3-2--2-2-1---1-|------------ 
-|-0----12--12--12--------------|--2--2--2--2--2--2-1--1-1-0---0-|------------ 
-|-0----------------------------|--7--7--7--7--7--7-6--6-6-5---5-|------------ 
-|------------------------------|--8--8--8--8--8--8-7--7-7-6---6-|------------ 
 Guit. 2                         Same as before                                 
 
-|----------------------------------------------------------------------------------/ 
-|-10--*------10-*------------------------------------------------------------------/ 
-|-12b-*-12b-----*--12b----12rb-p10vv--------------10-1010-1212--14--1414-1212-10---/ 
-|--------------------------------------10h12---12--------------------------------12/ 
-|----------------------------------------------------------------------------------/ 
-|----------------------------------------------------------------------------------/ 
 Solo, Guitar 1                                                    
 
-|-------------------------------------------------------10h13--13p10--13b-------/ 
-|------------------------------13b------13p10--10--13---------------------------/ 
-|---10-10s15b----10--15b--------------------------------------------------------/ 
-|12-----------12---------12-12------12-12---------------------------------------/ 
-|-------------------------------------------------------------------------------/ 
-|-------------------------------------------------------------------------------/ 
                                                                  
 
-|------------------|----------------------|-------------------------------|-- 
-|------------------|----------------------|-------------------------------|-- 
-|--0-----0------8--|--0-----0------8------|--3--3--3--3--3--3-2--2-2-1--1-|-- 
-|--0-----0------8--|--0-----0------8------|--2--2--2--2--2--2-1--1-1-0--0-|-- 
-|--x--8--x-8-10----|--x--8--x-8-10--------|--7--7--7--7--7--7-6--6-6-5--5-|-- 
-|-10----10---------|-10----10-------------|--8--8--8--8--8--8-7--7-7-6--6-|-- 
 Solo, guitar 2--8x   Verse, both guits.-8x                                    
 
-|-----------------|-----------------|-------------------------------|-------- 
-|-----------------|-----------------|-------------------------------|-------- 
-|--0-----0------8-|--0-----0------8-|--3--3--3--3--3--3-2--2-2-1--1-|-------- 
-|--0-----0------8-|--0-----0------8-|--2--2--2--2--2--2-1--1-1-0--0-|-------- 
-|--x--8--x-8-10---|--x--8--x-8-10---|--7--7--7--7--7--7-6--6-6-5--5-|-------- 
-|-10----10--------|-10----10--------|--8--8--8--8--8--8-7--7-7-6--6-|-------- 
  Play this line twice                                                         
 
-|------------------|--------------------------------------------------------- 
-|------------------|--------------------------------------------------------- 
-|--0-----0------8--|--------------------------------------------------------- 
-|--0-----0------8--|--------------------------------------------------------- 
-|--x--8--x-8-10----|--------------------------------------------------------- 
-|-10----10---------|--------------------------------------------------------- 
  Repeat till end, fade out...        
 
 
I am ahead 
I am advanced 
I am the first mammal to wear pants 
I am at peace 
with my lust 
I can kill cause in god I trust, yeh 
It's evolution, baby 
I am at peace 
I'm the man 
buying stocks on the day of the crash...yeh 
I'm a beast 
I'm a truck 
all the rolling hills I'll flatten'em out...yeh 
It's herd behavior 
It's evolution baby 
I'm a thief 
I'm a liar 
there's my church, I sing in the choir 
(hallelujah......hallelujah......) 
I'm ahead 
I'm advanced 
I'm the first mammal to make plans 
crawled the earth 
now I'm higher 
twenty-ten watch it go to fire 
It's evolution baby 
Do the evolution 
                                        
 
 
_______________________________________________________ 
Contribuição: Rodrigo([email protected]) 
	  

Search Paypal
auto scroll beats size up size down change color hide chords drawings
tab show chords e-chords YouTube Clip e-chords hide all tabs e-chords go to top tab