Pearl Jam

home > Pearl Jam

Do the evolution Bass Tab

Pearl Jam

Difficulty: AdvancedAdvanced

by Apocalyptica

tuner correct add songbook print version text version save to e-mail
chordsukulelecavacokeyboardtabbassdrummharmonicsflute Guitar Pro
chords

Do the evolution

  		Transcribed by: Shaun Boer 
Email: [email protected] 
 
Ok, u might not think the bass' intro is right but listen carefully to what Jeff plays. I don't know weather he stuffed up or he wanted it like that but he doesn't play the complete riff... u can if u want but I included his one. 
 
With the main riff, there's two versions of it which he plays so just play the one u want 2.
(The first one is the complete and proper sounding one) 
 
Email me with comments or suggestions.... 
 
G|------------------|------------------|----------------|----------------|---- 
D|------------------|----------------8-|--------------8-|----------------|---- 
A|-------------10-8-|-------------10---|----8----8-10---|----8----8-10-8-|---- 
E|-10-10-10-10------|-10-10-10-10------|-10---10--------|-10---10--------|---- 
  Intro                                                                        
 
-|-----------------------|-----------------------|--------------------------|- 
-|--------------------8--|-----------------------|--------------------------|- 
-|------8------8--10-----|------8------8--10--8--|--------------------------|- 
-|--10-----10------------|--10-----10------------|--8-8-8-8-8--7-7-7--6-6-6-|- 
  Main Riff             or                    x4    then                       
 
-|------------------------------------------------------------------|--------- 
-|------------------------------------------------------------------|--------- 
-|--5-5-5-5-5-5-5-5-5-5-5-5-5-5-5-5-/-8-8-8-8-8-8-8-8---------------|--------- 
-|-----------------------------------------------------7-7-7--6--6--|--------- 
  Bridge                                                                       
 
-|-----------------------------------------------------------------------|---- 
-|-----------------------------------------------------------------------|---- 
-|--5-5-5-5-5-5-5-5-5-5--/--8-8-8-8-8-8-8-8-7-7-7-7-7-7-7-7--5--5-5p3h5-5|5--- 
-|-----------------------------------------------------------------------|---- 
      a lot of these...                                               etc      
 
-|---------------------------|-------------------------------------|---------- 
-|---------------------------|------------------8--10-p-8----------|---------- 
-|--0h5-0h5-0h5-0h5-0h5-0h5--|--5--/--8--/--10-------------10------|---------- 
-|---------------------------|---------------------------------10--|---------- 
   Hit these hard      etc     Cool run thing...                               
 
-|---------------------------|------------------------------------------------ 
-|---------------------------|------------------------------------------------ 
-|---------------------------|------------------------------------------------ 
-|--8-8-8-8-8--7-7-7--6-6-6--|------------------------------------------------ 
                                                                               
 
-|--------------------------------------------------------------------------|- 
-|--------------------------------------------------------------------------|- 
-|--5-5-5-5-5-5-5-5-8-8-8-8-8-8-8-8-7-7-7-7-7-7-7-7-10-10-10-10-10-10-10-10-|- 
-|--------------------------------------------------------------------------|- 
  Halleluiah...                                                                 
 
-|--------------------------------------------------------------------------|- 
-|--------------------------------------------------------------------------|- 
-|-5-5-5-5-5-5-5-5-5-5-5-5-5-5-5-5-8-8-8-8-8-8-8-8-------------5-5-5-5-5-5--|- 
-|-------------------------------------------------7-7-7-6-6-6--------------|- 
                                                                    etc...     
 
-|-------------------------------------|---------------|---------------------- 
-|-------------------------------------|--12-12-12-12--|---------------------- 
-|-8-8-8-8-8-7-7-7-7-7-10-10-10-10-10--|---------------|---------------------- 
-|-------------------------------------|---------------|---------------------- 
                                  x2                                           
 
 
 
 
 

	  

Search Paypal
auto scroll beats size up size down change color hide chords drawings
tab show chords e-chords YouTube Clip e-chords hide all tabs e-chords go to top tab