Pearl Jam

home > Pearl Jam

Better Man Tab

Pearl Jam

Difficulty: BeginnerBeginner

tuner correct add songbook print version text version save to e-mail
chordsukulelecavacokeyboardtabbassdrumsharmonicsflute Guitar Pro
chords

Better Man

  		 
Cifra: Marcelo Grossi 
E-mail: [email protected] 
 
INTRODUÇÃO: 
 
--------------------------------------------------------------- 
------3---0-----------3---0-----------5---0----------5--5-5-5/3 
------2-----2---------2-----2/4-------4-----4------4--4----4---   2 vezes 
--------------------------------------------------------------- 
--------------------------------------------------------------- 
2-------------0h2---------------4--------------0h4------------- 
 
Waiting, watching the clock, it's 4 o'clock, it's got to stop 
------------------------------------------------------------- 
------3---0-----------3---0-----------5---0-------5---5--5--- 
------2-----2---------2-----2---------4-----4-------4--------   
------------------------------------------------------------- 
------------------------------------------------------------- 
2---------------2---------------4---------------4------------ 
 
Tell him, take no more she practices her speech 
------------------------------------------------------------- 
------3---0-----------3---0-----------5---0-------5---5--5--- 
------2-----2---------2-----2---------4-----4-------4--------   
------------------------------------------------------------- 
------------------------------------------------------------- 
2---------------2---------------4---------------4------------ 
 
(***)Obs no final. 
( F   G/B ) 
As he opens the door, she rolls over 
Pretends to sleep as he looks her over 
 
 
D             A             G       D 
She lies and says she's in love with him 
           A         G 
Can't find a better man 
D             A           G         D 
She dreams in colour she dreams in red 
D             A4        A 
Can't find a better man 
              A4        A 
Can't find a better man 
              A4        A    G 
Can't find a better man      Ohh.... 
 
 
Repete introdução apenas 1 vez. 
 
 
Talking to herself there's no one else who needs to know, She... 
------------------------------------------------------------- 
------3---0-----------3---0-----------5---0-------5---5--5--- 
------2-----2---------2-----2---------4-----4-------4--------   
------------------------------------------------------------- 
------------------------------------------------------------- 
2---------------2---------------4---------------4------------ 
tell herself, ohh... 
------------------------------------------------------------- 
------3---0-----------3---0-----------5---0-------5---5--5--- 
------2-----2---------2-----2---------4-----4-------4--------   
------------------------------------------------------------- 
------------------------------------------------------------- 
2---------------2---------------4---------------4------------ 
 
(***)Obs no final. 
D/F#                        E7 
Memories, back when she was smooth and strong and waited for 
F            G/B         F                      G/B           ...G/B.. 
The world to come along, swears she knew it now she swears he's gone 
 
D             A             G       D 
She lies and says she's in love with him 
           A         G 
Can't find a better man 
D             A           G         D 
She dreams in colour she dreams in red 
D             A         G 
Can't find a better man 
D             A             G       D 
She lies and says she's in love with him 
           A         G 
Can't find a better man 
D             A           G         D 
She dreams in colour she dreams in red 
D             A4        A 
Can't find a better man 
              A4        A 
Can't find a better man 
              A4        A    G  G  G  G... 
Can't find a better man       
 
( D A G ) 
She loved him, yeah. She don't want to leave this way 
She feeds him, yeah. That's why she'll be back again 
Can't find a better man ... 
 
        ....A    G      D 
	  

Full key step upFull key step up
Half key step upHalf key step up
Half key step downHalf key step down
Full key step downFull key step down
Search Paypal
auto scroll beats size up size down change color hide chords drawings
tab show chords e-chords YouTube Clip e-chords hide all tabs e-chords go to top tab