Passion

Suddenly

Passion

tabs

by  EDSOOLIVEIRA

save to print version add songbook text version e-mail correct tuner
chordsukulelecavacokeyboardtabbassdrumsharmonicaflute Guitar Pro
close

there isn't a video lesson for this song

chords

Suddenly

	  		


Intro 
    C                    C                    C                    C      F      C 
e|--------------------|--------------------|--------------------|-------------------------| 
B|--1------1-----1----|--1------1-----1----|--1------1-----1----|--1------1------1----1---| 
G|--0------0-----0----|--0------0-----0----|--0------0-----0----|--0------0------0----0---| 
D|--0h2----2-----0----|--0h2----2-----0----|--0h2----2-----0----|--0h2----2h3----2----0---| 
A|--3------3-----3----|--3------3-----3----|--3------3-----3----|--3------3------3----3---| 
E|--------------------|--------------------|--------------------|-------------------------| 

Repeat (x2) 

Verse 
    C                    C                    C                    C      F      C 
e|--------------------|--------------------|--------------------|-------------------------| 
B|--1------1-----1----|--1------1-----1----|--1------1-----1----|--1------1------1----1---| 
G|--0------0-----0----|--0------0-----0----|--0------0-----0----|--0------0------0----0---| 
D|--0h2----2-----0----|--0h2----2-----0----|--0h2----2-----0----|--0h2----2h3----2----0---| 
A|--3------3-----3----|--3------3-----3----|--3------3-----3----|--3------3------3----3---| 
E|--------------------|--------------------|--------------------|-------------------------| 
    I                                                watch the     sun    set    in   her 

    C                    C                    C                    C      F      C 
e|--------------------|--------------------|--------------------|-------------------------| 
B|--1------1-----1----|--1------1-----1----|--1------1-----1----|--1------1------1----1---| 
G|--0------0-----0----|--0------0-----0----|--0------0-----0----|--0------0------0----0---| 
D|--0h2----2-----0----|--0h2----2-----0----|--0h2----2-----0----|--0h2----2h3----2----0---| 
A|--3------3-----3----|--3------3-----3----|--3------3-----3----|--3------3------3----3---| 
E|--------------------|--------------------|--------------------|-------------------------| 
    eyes                                             never         was    too    good with 

    F                    F                    C                    C      F      C 
e|--------------------|--------------------|--------------------|--------------------| 
B|--1------1-----1----|--1------1-----1----|--1------1-----1----|--1------1-----1----| 
G|--0h2----2-----0----|--0h2----2-----0----|--0h2----2-----0----|--0h2----2-----0----| 
D|--3------3-----3----|--3------3-----3----|--3------3-----3----|--3------3-----3----| 
A|--3------3-----3----|--3------3-----3----|--3------3-----3----|--3------3-----3----| 
E|--------------------|--------------------|--------------------|--------------------| 
    goodbyes                                         but you're  honestly a better 

    C                    C                    C                    C      F      C 
e|--------------------|--------------------|--------------------|-------------------------| 
B|--1------1-----1----|--1------1-----1----|--1------1-----1----|--1------1------1----1---| 
G|--0------0-----0----|--0------0-----0----|--0------0-----0----|--0------0------0----0---| 
D|--0h2----2-----0----|--0h2----2-----0----|--0h2----2-----0----|--0h2----2h3----2----0---| 
A|--3------3-----3----|--3------3-----3----|--3------3-----3----|--3------3------3----3---| 
E|--------------------|--------------------|--------------------|-------------------------| 
    view. 

Pre-Chorus 
    F                    F                    F                    F 
e|--------------------|--------------------|--------------------|--------------------| 
B|--1------1-----1----|--1------1-----1----|--1------1-----1----|--1------1-----1----| 
G|--0h2----2-----0----|--0h2----2-----0----|--0h2----2-----0----|--0h2----2-----0----| 
D|--3------3-----3----|--3------3-----3----|--3------3-----3----|--3------3-----3----| 
A|--3------3-----3----|--3------3-----3----|--3------3-----3----|--3------3-----3----| 
E|--------------------|--------------------|--------------------|--------------------| 
    Ooh...               ooh...               ooh...       We      share the same 

    C                    C                    C                    C      F      C 
e|--------------------|--------------------|--------------------|-------------------------| 
B|--1------1-----1----|--1------1-----1----|--1------1-----1----|--1------1------1----1---| 
G|--0------0-----0----|--0------0-----0----|--0------0-----0----|--0------0------0----0---| 
D|--0h2----2-----0----|--0h2----2-----0----|--0h2----2-----0----|--0h2----2h3----2----0---| 
A|--3------3-----3----|--3------3-----3----|--3------3-----3----|--3------3------3----3---| 
E|--------------------|--------------------|--------------------|-------------------------| 
    scars...                                                       Oh...         and... 

    F                    F                    F                    F 
e|--------------------|--------------------|--------------------|--------------------| 
B|--1------1-----1----|--1------1-----1----|--1------1-----1----|--1------1-----1----| 
G|--0h2----2-----0----|--0h2----2-----0----|--0h2----2-----0----|--0h2----2-----0----| 
D|--3------3-----3----|--3------3-----3----|--3------3-----3----|--3------3-----3----| 
A|--3------3-----3----|--3------3-----3----|--3------3-----3----|--3------3-----3----| 
E|--------------------|--------------------|--------------------|--------------------| 
    Ooh...       wee     ooh we ooh...                     We      have the same 

    G                    hold               G                    G 
e|--1-----------------|--------------------|--1---1---1---1-----|--1---1---1---1-----| 
B|--1-----------------|--------------------|--1---1---1---1-----|--1---1---1---1-----| 
G|--0-----------------|--------------------|--0---0---0---0-----|--0---0---0---0-----| 
D|--0-----------------|--------------------|--0---0---0---0-----|--0---0---0---0-----| 
A|--2-----------------|--------------------|--2---2---2---2-----|--2---2---2---2-----| 
E|--3-----------------|--------------------|--3---3---3---3-----|--3---3---3---3-----| 
    heart...                                                       Oh... 


Chorus 
    F                    F                    F                    F 
e|--------------------|--------------------|--------------------|--------------------| 
B|--1------1-----1----|--1------1-----1----|--1------1-----1----|--1------1-----1----| 
G|--0h2----2-----0----|--0h2----2-----0----|--0h2----2-----0----|--0h2----2-----0----| 
D|--3------3-----3----|--3------3-----3----|--3------3-----3----|--3------3-----3----| 
A|--3------3-----3----|--3------3-----3----|--3------3-----3----|--3------3-----3----| 
E|--------------------|--------------------|--------------------|--------------------| 
    You   came   in      to  my life                               Su...  den... 

    C                    C                    C                    C      F      C 
e|--------------------|--------------------|--------------------|-------------------------| 
B|--1------1-----1----|--1------1-----1----|--1------1-----1----|--1------1------1----1---| 
G|--0------0-----0----|--0------0-----0----|--0------0-----0----|--0------0------0----0---| 
D|--0h2----2-----0----|--0h2----2-----0----|--0h2----2-----0----|--0h2----2h3----2----0---| 
A|--3------3-----3----|--3------3-----3----|--3------3-----3----|--3------3------3----3---| 
E|--------------------|--------------------|--------------------|-------------------------| 
    ly...                                                                 Help        me 

    F                    F                    F                    F 
e|--------------------|--------------------|--------------------|--------------------| 
B|--1------1-----1----|--1------1-----1----|--1------1-----1----|--1------1-----1----| 
G|--0h2----2-----0----|--0h2----2-----0----|--0h2----2-----0----|--0h2----2-----0----| 
D|--3------3-----3----|--3------3-----3----|--3------3-----3----|--3------3-----3----| 
A|--3------3-----3----|--3------3-----3----|--3------3-----3----|--3------3-----3----| 
E|--------------------|--------------------|--------------------|--------------------| 
    steer        this    boat  away   from    fear         and     now    I  

    G                    hold               G 
e|--1-----------------|--------------------|--1-----------------| 
B|--1-----------------|--------------------|--1-----------------| 
G|--0-----------------|--------------------|--0-----------------| 
D|--0-----------------|--------------------|--0-----------------| 
A|--2-----------------|--------------------|--2-----------------| 
E|--3-----------------|--------------------|--3-----------------| 
    see...                            We're exactly where we should 

    C                    C                    C                    C      F      C 
e|--------------------|--------------------|--------------------|-------------------------| 
B|--1------1-----1----|--1------1-----1----|--1------1-----1----|--1------1------1----1---| 
G|--0------0-----0----|--0------0-----0----|--0------0-----0----|--0------0------0----0---| 
D|--0h2----2-----0----|--0h2----2-----0----|--0h2----2-----0----|--0h2----2h3----2----0---| 
A|--3------3-----3----|--3------3-----3----|--3------3-----3----|--3------3------3----3---| 
E|--------------------|--------------------|--------------------|-------------------------| 
           be 

    C                    C                    C                    C      F      C 
e|--------------------|--------------------|--------------------|-------------------------| 
B|--1------1-----1----|--1------1-----1----|--1------1-----1----|--1------1------1----1---| 
G|--0------0-----0----|--0------0-----0----|--0------0-----0----|--0------0------0----0---| 
D|--0h2----2-----0----|--0h2----2-----0----|--0h2----2-----0----|--0h2----2h3----2----0---| 
A|--3------3-----3----|--3------3-----3----|--3------3-----3----|--3------3------3----3---| 
E|--------------------|--------------------|--------------------|-------------------------| 
 
		  

Full key step upFull key step up
Half key step upHalf key step up
Half key step downHalf key step down
Full key step downFull key step down
hide glossary

See also:

tabs Darrell Evans - Trading My Sorrows tabs Bloodgood - Out of the darkness tabs Planetshakers - Fall in this place tabs Jars of Clay - Flood (acoustic) tabs Hillsong - One way tabs Paul Wilbur - Adonai
e-chords

Other versions:

tabs Passion - Suddenly tabs Kt Tunstall - Suddenly I See
auto scroll beats size up size down change color hide chords drawings
tab show chords e-chords YouTube Clip e-chords hide all tabs e-chords go to top tab

share