Passion

home > Passion

lemonade Tab

Passion

Difficulty: BeginnerBeginner

by unfortunateflip

tuner correct add songbook print version text version save to e-mail
chordsukulelecavacokeyboardtabbassdrumsharmonicsflute Guitar Pro
chords

lemonade

  		Intro: 
    C	  Cm      Bm    Bbm	      C	   Cm	       Bm 
e|----------------------------------------------------------------------| 
B|-5--5---4----4---3--3-----2--2-----5--5---4-4--------4--3--3-----3----| 
G|-5--5---5----5---4--4-----3--3-----5--5---5-5----5---5--4--4-----4----| 
D|---------------------------------------------------5------------------| 
A|-3--3---3----3---2--2---1----1-----3--3---3-3--3--------2--2---2------| 
E|----------------------------------------------------------------------| 
    tap ^    ^   ^      ^     ^          ^                            ^ 
 
Verse: 
    C    Cm    Bm         B             Bb 
e|----------------------------------------------------------------------| 
B|---5----4-----3----3------4---4--4------3---3-3-------3---------------| 
G|---5----5-----4----4------4---4--4------3---3-3---3---3---------------| 
D|----------------------------------------------------3-----------------| 
A|-3------3-----2----2----2-----2--2----1-----1-1-1---------------------| 
E|----------------------------------------------------------------------| 
   tap ^      ^    ^    ^     ^       ^  
 
   C    Cm   B    Bm   Bb     Bbm  C     Cm 
e|----------------------------------------------------------------------| 
B|-5----4----4----3----3--3---2--2----5---4-4--------4------------------| 
G|-5----5----4----4----3--3---3--3----5---5-5----5---5------------------| 
D|-------------------------------------------------5--------------------| 
A|-3----3----2----2----1--1---1-----3-----3-3--3------------------------| 
E|----------------------------------------------------------------------| 
  tap ^    ^    ^    ^      ^           ^ 
 
Chorus: 
   Bbm      Bb      Bm            Cm     B    Bm    Bbm 
e|----------------------------------------------------------------------| 
B|-2--2----3---3---3--3--3-3--3---4--4--4--4---3---2--2--2--------------| 
G|-3--3----3---3---4--4--4-4--4---5--5--4--4---4---3--3--3--------------| 
D|----------------------------------------------------------------------| 
A|-1--1----1---1---2--2--2-2--2---3--3--2--2---2---1--1--1--------------| 
E|----------------------------------------------------------------------| 
   tap ^        ^      ^              ^   ^      ^     ^               
 
   Bb    Bm        Cm             Bm     B    C     Cm 
e|----------------------------------------------------------------------| 
B|-3--3--3--3--3---4--4---4-4-----3--3-----4----5---4-4--------4--------| 
G|-3--3--4--4--4---5--5---5-5-----4--4-----4----5---5-5----5---5--------| 
D|-----------------------------------------------------------5----------| 
A|-1--1--2--2--2---3--3---3-3-----2------2----3-----3-3--3--------------| 
E|----------------------------------------------------------------------| 
   tap ^     ^         ^        ^      ^          ^       
 
Verse2: 
   C   C   Cm        B     Bm      Bb   Bbm     
e|----------------------------------------------------------------------| 
B|-5---5-5---4---4---4--4--3---3-----3--2-2--2--(4)---(4)---------------| 
G|-5---5-5---5---5---4--4--4---4-----3--3-3--3--(4)---(5)---------------| 
D|----------------------------------------------------------------------| 
A|-3---3-3-3-----3---2--2--2---2---1----1-1--1------3-------------------| 
E|----------------------------------------------------------------------| 
  tap ^        ^   ^     ^            ^                    ^ 
   
   Bbm  Bm      C     Cm       Cm         
e|----------------------------------------------------------------------| 
B|-2----3---3-----5---4---4------3---3-3--------3-----------------------| 
G|-3----4---4-----5---5---5------4---4-4----4---4-----------------------| 
D|--------------------------------------------4-------------------------| 
A|-1----2---2---3-----3---3----2-----2-2--2-----------------------------| 
E|----------------------------------------------------------------------| 
  tap ^   ^   ^     ^      ^       ^ 
 
There are some slight changes in the second Chorus 
 
Chorus2: 
   Bbm    Bb        Bm             Cm    B         Bm    Bbm 
e|----------------------------------------------------------------------| 
B|-2--2---3--3--3---3--3--3-3--3---4--4--4--4--4---3--3--2--2-----------| 
G|-3--3---3--3--3---4--4--4-4--4---5--5--4--4--4---4--4--3--3-----------| 
D|----------------------------------------------------------------------| 
A|-1--1---1--1--1---2--2--2-2--2---3--3--2--2--2---2--2--1--1-----------| 
E|----------------------------------------------------------------------| 
   tap ^      ^         ^              ^     ^         ^     ^               
 
   Bb    Bm        Cm             Bm     B       C     Cm 
e|----------------------------------------------------------------------| 
B|-3--3--3--3--3---4--4---4-4-----3--3-----4---4---5---4-4--------4-----| 
G|-3--3--4--4--4---5--5---5-5-----4--4-----4---4---5---5-5----5---5-----| 
D|--------------------------------------------------------------5-------| 
A|-1--1--2--2--2---3--3---3-3-----2------2---2---3-----3-3--3-----------| 
E|----------------------------------------------------------------------| 
   tap ^     ^         ^        ^      ^             ^       
 
Chorus3: 
   Bbm    Bb     Bm          Cm    B     Bm     Bbm 
e|----------------------------------------------------------------------| 
B|-2--2---3------3-----3-----4-4---4-----3--3---2--2--------------------| 
G|-3--3---3------4-----4-----5-5---4-----4--4---3--3--------------------| 
D|----------------------------------------------------------------------| 
A|-1--1---1------2-----2-----3-3---2-----2--2---1--1--------------------| 
E|----------------------------------------------------------------------| 
   tap ^     ^      ^     ^     ^     ^      ^      ^               
 
   Bb           B         C     B      Cm    C            
e|-------------------------------------------3--------------------------| 
B|-3---------3--4---4-----5-5---4--4---4-4---5-----5-----5---5/---------| 
G|-3-------3----4---4-----5-5---4--4---5-5---5----5-5----5---5/---------| 
D|-------3------4---------------4--4---------5---5---5---5--------------| 
A|-1---1--------2---2-----3-3---2--2---3-3---3--3-----3--3---3/---------| 
E|----------------------------------------------------------------------| 
 tap ^          | ^   ^         |  | ^    ^  |           | 
                |               |  |         |           | 
                ^               ^  ^         ^           ^  
             |strum|          |strum|     |strum|     |strum| 

	  

Full key step upFull key step up
Half key step upHalf key step up
Half key step downHalf key step down
Full key step downFull key step down
Search Paypal
auto scroll beats size up size down change color hide chords drawings
tab show chords e-chords YouTube Clip e-chords hide all tabs e-chords go to top tab