Papa Roach

home > Papa Roach

Forever Tab

Papa Roach

Difficulty: ExpertExpert

by educastilho

tuner correct add songbook print version text version save to e-mail
chordsukulelecavacokeyboardtabbassdrumsharmonicsflute Guitar Pro
chords

Forever

Key:  Dm More
Forever Key AmAm
Forever Key A#mA#m
Forever Key BmBm
Forever Key CmCm(one step down)
Forever Key C#mC#m(half step down)
Forever Key DmDm(original key)
Forever Key D#mD#m(half step up)
Forever Key EmEm(one step up)
Forever Key FmFm
Forever Key F#mF#m
Forever Key GmGm
Forever Key G#mG#m
  		Atencion amigos, este punteo en la version original se escucha que la primera nota se repite, pero no es asi,  
solo es un efecto que se le da. El verdader punteo es este, sino me creen escuchen la version acustica. 



In the brightest hour 
Of my darkest day 
I realized 
What is wrong with me 

Can't get over you 
Can't get through to you 
It's been a helter-skelter romance from the start 

take these memories 
that are haunting me 
of a paper man cut into shreds 
by his own pair of scissors 
he'll never forgive her... 
he'll never forgive her... 

E|--6-5---5----------------------------- 
B|------6---8-5-5---5-6-6-5-6-8--------- 
G|----------------7--------------------- 
D|-------------------------------------- 
A|-------------------------------------- 
G|-------------------------------------- 

Because days come and go 
But my feelings for you are forever 
Because days come and go 
But my feelings for you are forever 

Sitting by the fire on a lonely night 
Hanging over from another good time 
With another girl... little dirty girl 
You should listen to this story of a life 

You're my heroin- 
In this moment I'm lonely 
fullfilling my darkest dreams 
All these drugs, all these women 
I'm never forgiving... 
this broken heart of mine 

E|--6-5---5----------------------------- 
B|------6---8-5-5---5-6-6-5-6-8--------- 
G|----------------7--------------------- 
D|-------------------------------------- 
A|-------------------------------------- 
G|-------------------------------------- 

Because days come and go 
But my feelings for you are forever 
Because days come and go 
But my feelings for you are forever 

One last kiss 
Before I go 
Dry your tears 
It is time to let you go 

One last kiss 
	  

Search Paypal
auto scroll beats size up size down change color hide chords drawings
tab show chords e-chords YouTube Clip e-chords hide all tabs e-chords go to top tab