Papa Roach

home > Papa Roach

Skeletons Tab

Papa Roach

Difficulty: nolevelnolevel

by ubirbomfim

tuner correct add songbook print version text version save to e-mail
chordsukulelecavacokeyboardtabbassdrumsharmonicsflute Guitar Pro
chords

Skeletons

  		Tuning: Drop C (C,G,C,F,A,D) 

Intro 
D|--------------------------------------------------------| 
A|--------------------------------------------------------| 
F|--------------------------------------------------------| 
C|-----------------------------------------------------\\-| 
G|----------10h12-12-10-8-------------10h12-12-10-8----\\-| 
C|-0--0--1/---------------12-0--0--1/---------------12-\\-| 

Riff 1 
D|-----------------------------------------------------| 
A|-----------------------------------------------------| 
F|-----------------------------------------------------| 
C|-----------------------------------------------------| x2 
G|----------10h12-12-10-8-------------10h12-12-10-8----| 
C|-0--0--1/---------------12-0--0--1/---------------12-| 

D|-----------------------------------------------------| 
A|-----------------------------------------------------| 
F|-----------------------------------------------------| 
C|-----------------------------------------------------| x2 
G|----------10h12-12-10-8-------------10h12-12-10-8----| 
C|-8--8--1/---------------12-8--8--1/---------------12-| 

D|-------------------------------------------| 
A|-------------------------------------------| 
F|-------------------------------------------| 
C|-------------------------------------------| 
G|----------10h12-12-10-8--------------8-----| 
C|-8--8--1/---------------12-8--8--5h6---3-3-| 

Riff 2   "I can see myself in a broken reflection..." 
D|------------------------------------------------------------------------------------------| 
A|------------------------------------------------------------------------------------------| 
F|------------------------------------------------------------------------------------------| 
C|-0--0------0--0------0--0--------0--0------8--8------8--8------8--8--------8--8-----------| 
G|-0--0------0--0------0--0------0-0--0------8--8------8--8------8--8------8-8--8-----8-----| 
C|-0--0------0--0------0--0------0-0--0------8--8------8--8------8--8------8-8--8-5h6---3-3-| 
                                 *                                         * 

Play Riff 2 x2   "Beaten down in a crowd..." 

Riff 3   "Is there no salvation..." 
D|-----------------------------4*4*4*-| 
A|-----------------------------4*4*4*-| 
F|-----------------------------4*4*4*-| 
C|------------------------------------| 
G|------------------------------------| 
C|-5--5--5-0-5--5--5-0-6b7~-----------| 

Riff 4   "Brick by brick I built this wall..." 
D|---------------------------------------------------------------------------------------------------| 
A|---------------------------------------------------------------------------------------------------| 
F|---------------------------------------------------------------------------------------------------| 
C|-8--8-8-8-8-8--8-8-8-8-10--10-10-10-10-10--10-10-10-10-0--0-0-0-0-0--0-0-0-0-3--3-3-3-3-3--3-3-3-3-| 
G|-8--8-8-8-8-8--8-8-8-8-10--10-10-10-10-10--10-10-10-10-0--0-0-0-0-0--0-0-0-0-3--3-3-3-3-3--3-3-3-3-| 
C|-8--8-8-8-8-8--8-8-8-8-10--10-10-10-10-10--10-10-10-10-0--0-0-0-0-0--0-0-0-0-3--3-3-3-3-3--3-3-3-3-| 

D|-----------------------------------------------------------------------------------------------------| 
A|-----------------------------------------------------------------------------------------------------| 
F|-----------------------------------------------------------------------------------------------------| 
C|-8--8-8-8-8-8--8-8-8-8-10--10-10-10-10-10--10-10-10-10-----------0--0-10-10-10-10-9-0-----0--0-------| 
G|-5--5-5-5-5-5--5-5-5-5-7---7--7--7--7--7---7--7--7--7--------0-0-0--0-8--8--8--8--8-0-0-0-0--0-0-0-0-| 
C|-5--5-5-5-5-5--5-5-5-5-7---7--7--7--7--7---7--7--7--7--/12-0-0-0-0--0---------------0-0-0-0--0-0-0-0-| 
                                                               * *                      * *      * * * 
                                                      ^ends here second time through 

Play Riff 4 x2   "One by one we catch the stones..." 
Play Riff 1 X0.5 "We all have our skeletons..." 

Riff 5   "I have lost myself in my addictions..." 
D|-------------------------------------------------------------------------------------------| 
A|-------------------------------------------------------------------------------------------| 
F|-------------------------------------------------------------------------------------------| 
C|-0--0------0--0------0--0--------0--0------8--8--------8--8------8--8----------------3-----| 
G|-0--0------0--0------0--0------0-0--0------8--8------8-8--8------8--8------8-3h5-3-5-------| 
C|-0--0------0--0------0--0------0-0--0------8--8------8-8--8------8--8------8-----------3-3-| 
                                 *                     *                     * 

D|--------------------------------------------------------------------------------------------------| 
A|--------------------------------------------------------------------------------------------------| 
F|--------------------------------------------------------------------------------------------------| 
C|-0--0------0--0------0--0--------0--0------------8--8--------8--8------8--8--------8--8-----------| 
G|-0--0------0--0------0--0------0-0--0--0-3h5-3-5-8--8------8-8--8------8--8------8-8--8-----8-----| 
C|-0--0------0--0------0--0------0-0--0--0---------8--8------8-8--8------8--8------8-8--8-5h6---3-3-| 
                                 *       *                   *                     * 

Play Riff 3 x1   "Is there no salvation..." 
Play Riff 4 x2   "Brick by brick I built this wall..." 

Riff 6   "Brick by brick by..." 
D|------------------------------------------------| 
A|------------------------------------------------| 
F|------------------------------------------------| 
C|-10/12-0--3--8~----10/12-0-10/12-0-\\---6--5--3-| 
G|-10/12-0--3--8~----10/12-0-10/12-0-\\---6--5--3-| 
C|-10/12-0--3--8~----10/12-0-10/12-0-\\---6--5--3-| 

Riff 7 
D|------------------------------------------------------------------------------------| 
A|------------------------------------------------------------------------------------| 
F|------------------------------------------------------------------------------------| 
C|--------------------------------------------------------------3-3-3---8-8-8---5-5-5-| 
G|--------------------------------------------------------------------0-8-8-8-0-5-5-5-| 
C|-0--0--0-0-1-0-0--0-0-3-5-3-6-3-5-3-5-3-6-3-5-0--0--0-0-1-0-0-------0-8-8-8-0-5-5-5-| 
                                                      * *             *       * 

D|----------------------------------------------------------------------------------------------| 
A|----------------------------------------------------------------------------------------------| 
F|----------------------------------------8b----------------------------------------------------| 
C|----------------------------------------x------------------3-3-3---8-8-8-----------------0--0-| 
G|----------------------------------------6b-----------------------0-8-8-8-----------------0--0-| 
C|-0--0--0-0-1-0-0--0-0-3-5-3-6-3-5-3-5-3----0--0--0-0-1-0-0-------0-8-8-8-0-10-0-13-10-12-0--0-| 
                                                   * *             *       *    *  

Fill 1 
D|-------------------4*-| 
A|-------------------4*-| 
F|-------------------4*-| 
C|----------------------| 
G|----------10h12-12----| 
C|-0--0--1/-------------| 

Play Riff 4 x2   "Brick by brick I built this wall..." 

Ending   "We all have our skeletons..." 
D|----------------------------------------------------------------------------------------------| 
A|----------------------------------------------------------------------------------------------| 
F|----------------------------------------------------------------------------------------------| 
C|---------------------------------------------------------------------------------8-8---5-5----| 
G|----------10h12-12-10-8-------------10h12-12-10-8-------------10h12-12-10-8----0-8-8-0-5-5----| 
C|-0--0--1/---------------12-0--0--1/---------------12-0--0--1/---------------12-0-8-8-0-5-5-0~-| 
                                                                                 *     *  
	  

Full key step upFull key step up
Half key step upHalf key step up
Half key step downHalf key step down
Full key step downFull key step down
Search Paypal
auto scroll beats size up size down change color hide chords drawings
tab show chords e-chords YouTube Clip e-chords hide all tabs e-chords go to top tab