Papa Roach

home > Papa Roach

Falling Apart Tab

Papa Roach

Difficulty: nolevelnolevel

by tamamoreira

tuner correct add songbook print version text version save to e-mail
chordsukulelecavacokeyboardtabbassdrumsharmonicsflute Guitar Pro
chords

Falling Apart

  		

Tuning: Drop B 

All notes in parentheses () are palm muted  

Intro (sounds like a volume pedal used) 
C#|---------------------------------------------------------------------------| 
G#|---------------------------------------------------------------------------| 
E |---------------------------------------------------------------------------| 
B |---------------------------------------------------------------------------| 
F#|---------------------------------------------------------------------------| 
B |-0-0-0-000-00-0-0-9-9\4-4-4-4----------------------------------------------| 

Full Volume 
C#|----------------------------------------------------------------------------------------------| 
G#|----------------------------------------------------------------------------------------------| 
E |----------------------------------------------------------------------------------------------| 
B |-0---0-0---0-0---0-0----0-0----0-0-----2-2--4-----4-4-----4-4-----4-4-----4-4-----4-4----2-2--| 
F#|-0---0-0---0-0---0-0----0-0----0-0-----2-2--4-----4-4-----4-4-----4-4-----4-4-----4-4----2-2--| 
B |-0(0)0-0(0)0-0(0)0-0(0)-0-0(0)-0-0-(0)-2-2--4-(4)-4-4-(4)-4-4-(4)-4-4-(4)-4-4-(4)-4-4-(4)2-2--| 


C#|----------------------------------------------------------------------------------------------| 
G#|----------------------------------------------------------------------------------------------| 
E |----------------------------------------------------------------------------------------------| 
B |-0---0-0---0-0---0-0----0-0----0-0-----2-2--4-----4-4-----4-4-----4-4-----7-7-----7-7-----7-7-| 
F#|-0---0-0---0-0---0-0----0-0----0-0-----2-2--4-----4-4-----4-4-----4-4-----7-7-----7-7-----7-7-| 
B |-0(0)0-0(0)0-0(0)0-0(0)-0-0(0)-0-0-(0)-2-2--4-(4)-4-4-(4)-4-4-(4)-4-4-(4)-7-7-(7)-7-7-(7)-7-7-| 
                                       
For the verse, play the same thing just on the low B by itself, not as a bar chord. 

Chorus 
C#|-------------------------------------------------| 
G#|-------------------------------------------------| 
E |-------------------------------------------------| 
B |-0-0-0-000-00-0-0-99-99\4-4-4-444-44-4-4--77-777-| 
F#|-0-0-0-000-00-0-0-99-99\4-4-4-444-44-4-4--77-777-| 
B |-0-0-0-000-00-0-0-99-99\4-4-4-444-44-4-4--77-777-| x2 



I'm still working on the bridge and the lead stuff going on, but this should help to get you started. 




************************************ 

| /   slide up 
| \   slide down 
| h   hammer-on 
| p   pull-off 
| ~   vibrato 
| +   harmonic 
| x   Mute note 
| b   Bend 
| pb  Pre-bend 
| br  Bend release 
| pbr Pre-bend release 
| brb Bend release bend 

************************************ 
	  

Search Paypal
auto scroll beats size up size down change color hide chords drawings
tab show chords e-chords YouTube Clip e-chords hide all tabs e-chords go to top tab