Papa Roach

home > Papa Roach

Between angels and insects Tab

Papa Roach

Difficulty: BeginnerBeginner

tuner correct add songbook print version text version save to e-mail
chordsukulelecavacokeyboardtabbassdrummharmonicsflute Guitar Pro
chords

Between angels and insects

  		Intro: (Riff1)
D5   Bb5   A5   C5
Riff1 (Intro - distortion guitar)
e--------------------------------------------------------------------------------------------------------
B--------------------------------------------------------------------------------------------------------
G--------------------------------------------------------------------------------------------------------
D--------------------------------------------------------------------------------------------------------
A---8---7---10---8---7h8-----8---7---10---8---7h8----8---7---10---8---7h8------8----7----10----8----7h8p7
D-0---0---0----0---0-------8---8---8----8---8------7---7---7----7---7-------10---10---10----10---10------
  D5                       Bb5                     A5                       C5
D5                       Bb5
  There's no mo__ney___,  There's no po_ssessions_,
A5                     C5
  Only_ obsession___,     I_ don't_ need_ that_ shit_,
D5 (strum) (clean guitar plays Riff1)
  Take_ my money__, Take_ my_ obsession_
D5   C5   D5   C5  (drums + bass enter)
A5   C5   A5   C5
D5   C5   D5   C5
A5   Bb5  F5   Eb5
Riff2 After intro
e---------------------------------------------------------
B---------------------------------------------------------
G--------55555---------55555---------55555---------55555--
D-00000--55555--00000--55555--77777--55555--77777--55555--
A-00000--33333--00000--33333--77777--33333--77777--33333--
D-00000---------00000---------77777---------77777---------
  D5     C5     D5     C5     A5     C5     A5     C5
e---------------------------------------------------------
B---------------------------------------------------------
G--------55555---------55555------------------------------
D-00000--55555--00000--55555--77777--88888--33333--11111--
A-00000--33333--00000--33333--77777--88888--33333--11111--
D-00000---------00000---------77777--88888--33333--11111-
  D5     C5     D5     C5     A5     Bb5    F5     Eb5
Riff3 (Verse)
 /palm mute\                       /palm mute\
e--------------------------------------------------------------------
B--------------------------------------------------------------------
G--------------7-7-7/12-12\10-10-----------------7-7-7/12-12\10-10---
D-0-0-0-0-0----x-x-x/x--x--x--x-----3-3-3-3-3----x-x-x/x--x--x--x----
A-0-0-0-0-0----5-5-5/10-10\8--8-----3-3-3-3-3----5-5-5/10-10\8--8----
D-0-0-0-0-0-------------------------3-3-3-3-3------------------------
  D5                                F5
  /palm mute\                      /palm mute\
e--------------------------------------------------------------------
B--------------------------------------------------------------------
G--------------7-7-7/12-12\10-10-------------------------------------
D-7-7-7-7-7----x-x-x/x--x--x--x-----8-8-8-8-8------------------------
A-7-7-7-7-7----5-5-5/10-10\8--8-----8-8-8-8-8------------------------
D-7-7-7-7-7-------------------------8-8-8-8-8-----8h10-8h10--8h10----
  A5                                Bb5
 Verse1  (Riff3)
                  D5
I just want to be heard, loud and clear are my words,
F5
coming from within man tell them what you heard,
A5
 it's about a revolution,
Bb5
in your heart and in your mind, till you find a conclusion
D5
Lost out in obsession,
F5
diamond rings get you nothing but a life-long lesson,
A5
 and your pocketbooks stressing,
Bb5
you're a slave to the system, working jobs that you hate
D5
 for that shit you don't need,
F5
it's too bad the world is based on greed, 
A5
step back and see,
Bb5                           C5
stop thinking about yourself, start thinking about... 
 Chorus  (Riff2)
D5            C5          D5             C5
  There's no mo__ney___,    There's no po_ssessions_,
A5     C5                A5         C5
  Only_ obsession___,     I_ don't_ need_ that_ shit_,
D5!         C5            D5             C5
  Take_ my money__,         Take_ my_ possession_
A5        C5                A5         C5
  Take my_ obsession___,     I_ don't_ need_ that_ shit_,
 Verse2  (Riff3)
                      D5
Because everything is nothing, and emptiness isn't everything,
F5
this reality is really just a fucked up dream,
A5
with the flesh and the blood that you call your soul,
Bb5
flip it inside out, it's a big black hole,
D5
  take your money burn it up like an asteroid,
F5
possession, though you're never gonna feel the void,
A5
take it away and learn your best lesson,
Bb5                      C5
the heart, the soul, the life, the passion
 Repeat Chorus 
 Bridge 
D5 (hit once)             Bb5 (hit once)
        Mo___ney_______,                Po_sses__sion___,
A5 (hit once)             C5 (hit once)
         Ob__ses__sion____,
D5             Bb5              A5       C5   (+Riff1)
   Present yourself, press your clothes, comb your hair, and clock in,
D5             Bb5             A5                      C5   (+Riff1)
You just can't win, just can't win, And the things you own, own you
D5!
NOOOOOOOOOOOOO! 
 Chorus  (Riff2)
D5          C5            D5             C5
  Take_ my money__,         Take_ my_ possession_
A5        C5                A5         C5
  Take my_ obsession___,     I_ don't_ need_ that_ shit_,
D5!          C5            D5             C5
  Fuck_ your_ money__,         Fuck_ your_ possession_
A5        C5                A5         C5
  Fuck_ your_ obsession___,     I_ don't_ need_ that_ shit_
D5
     Mo___ney_______,         Po_sses__sion___,
A5      C5               A5       C5         D5
     Ob__ses__sion____,   I don't need that shit_
Riff4  (4x)  fade out..
Riff4 Clean guitar
e-------------------------
B-------------------------
G-------------------------
D-------------------------
A---8---7---10---8---7h8--
D-0---0---0----0---0------
  D5
Chords:
Drop-D tuning
	  

Full key step upFull key step up
Half key step upHalf key step up
Half key step downHalf key step down
Full key step downFull key step down
Search Paypal
auto scroll beats size up size down change color hide chords drawings
tab show chords e-chords YouTube Clip e-chords hide all tabs e-chords go to top tab