Papa Roach

home > Papa Roach

Between angels and insects Bass Tab

Papa Roach

Difficulty: nolevelnolevel

by Corral+Urias

tuner correct add songbook print version text version save to e-mail
chordsukulelecavacokeyboardtabbassdrummharmonicsflute Guitar Pro
chords

Between angels and insects

  		Papa roach 
Between angeles and insect 
Por [email protected] 
efectos: 
h:hammer 
 
INTRO 
1.----------------------- 
2.----------------------- 
3.----------------------- 
4.-0-0-0-0-0-h10-10-10-10  x2 
 
1.----------------------- 
2.----------------------- 
3.----------------------- 
4.-7-7-7-7-7-h10-10-10-10 x2 
 
1.----------------------- 
2.----------------------- 
3.----------------------- 
4.-0-0-0-0-0-h10-10-10-10 x2 
 
1.--------------------------------------- 
2.--------------------------------------- 
3.--------------------------------------- 
4.-7-7-7-7-7-h8-8-8-8--3-3-3-3-3--1-1-1-1 
 
verso 
1.----------------------------------------------------------- 
2.----------------------------------------------------------- 
3.------------------0-0-0-1-1-1-1-1--0-0-0-3-3-3-3-3--3-1-3-3 x3 
4.-0-0-0--3-3-3-3-3------------------------------------------ 
 
choro 
1.----------------------- 
2.----------------------- 
3.----------------------- 
4.-0-0-0-0-0-h10-10-10-10 x 2 
 
1.----------------------- 
2.----------------------- 
3.----------------------- x2 
4.-7-7-7-7-7-h10-10-10-10 
 
ahora el verso otra ves: x2 
luego el choro otra ves: x2 
 
1.---------------------------------------------------------------- 
2.---------------------------------------------------------------- 
3.---------5-3-2-3---------5-3-2-3---------5-3-2-3-------3-----3-3 x2 
4.-0-0-0-3---------1-1-1-3---------0-0-0-3---------3-3-3---3-3---- 
 
el choro otra ves: x3 
 
Final 
1.--------------- 
2.--------------- 
3.---3-2-5-3-2-3- 
4.-0------------- 
 

	  

Search Paypal
auto scroll beats size up size down change color hide chords drawings
tab show chords e-chords YouTube Clip e-chords hide all tabs e-chords go to top tab