Ozzy Osbourne

home > Ozzy Osbourne

Flying High Again Tab

Ozzy Osbourne

Difficulty: EasyEasy

tuner correct add songbook print version text version save to e-mail
chordsukulelecavacokeyboardtabbassdrumsharmonicsflute Guitar Pro
chords

Flying High Again

Year: 1981 - Album: Prince of Darkness

  		 
Gtr I (Eb Ab Db Gb Bb Eb) - 'Randy Rhoads - dist electric' 
Gtr II (Eb Ab Db Gb Bb Eb) - 'Rhythm & Fills - dist electric' 
 
Intro 
  Q=124 
 4/4 
  Gtr I 
  E E E E E E Q    Q  E E +e  q  E   +Q   E E E E Q    Q  E Q.   Q 
|----------------|---------------3-|-(3)-------------|--------------| 
|-----3----------|------------3--3-|-(3)------3-3----|--------------| 
|-2-2-2-0-2-2----|------2-(2)-2--0-|-(0)------2-2----|------5----0--| 
|-2-2-4-0-2-2----|------2-(2)-4--0-|-(0)------0-0----|------5----0--| 
|-0-0-0-0-0-0----|------0-(0)-0--x-|-(x)--2h3--------|------3-------| 
|----------------|---------------3-|-(3)-------------|-----------3--| 
 
 
                             ~~~~ 
  E E E E     E E +Q        +E   Q  E +e  q  E 
|-------------------------|--------------------| 
|-------------------------|---------------3--3-| 
|-2-2-2-------2-----------|---------2-(2)-2--0-| 
|-2-2-4-------2-----------|---------2-(2)-4--0-| 
|-0-0-0-------0-----------|---------0-(0)-0--x-| 
|-------3b3.5---3-(3)b4===|=(4)r-------------3-| 
 
 
                             PM--------| 
                       |-3-| 
  +Q   E E E E Q    Q  S S S S S S S S S S S E 
|-----------------|--------------------------------|| 
|-(3)------3-3----|--------x-1p0h1p0---------------|| 
|-(0)------2-2----|------x-----------2p0-----------|| 
|-(0)------0-0----|----x-----------------2p0-------|| 
|-(x)--2h3--------|--------------------------3b4---|| 
|-(3)-------------|--------------------------------|| 
 
 
 Verse 1 
  E E E E     E E     Q    Q  E E +e  q  E   +Q   E E E E Q    Q  E E +Q   Q 
|------------------------|-----------------|-----------------|---------------| 
|------------------------|------------3--3-|-(3)------3-3----|---------------| 
|-2-2-2-------2----------|------2-(2)-2--0-|-(0)------2-2----|------5-(5)--0-| 
|-2-2-4-------2----------|------2-(2)-4--0-|-(0)------0-0----|------5-(5)--0-| 
|-0-0-0-------0----------|------0-(0)-0--x-|-(x)--2h3--------|------3-(3)----| 
|-------3b3.5---3b3.5----|---------------3-|-(3)-------------|---------------| 
 
 
  E E E E E  E       +E   E     Q    E E E q  E 
|---------------------------|-------------------| 
|---------------------------|--------------3--3-| 
|-2-2-2---2-----------------|----------2---2--0-| 
|-2-2-4---2-----------------|----------2---4--0-| 
|-0-0-0---0-----------------|----------0---0--x-| 
|-------3----3b3.5=(3.5)r---|-----------------3-| 
| 
| Gtr II 
|                     ~~~~~~~~~~~~~~ 
| H       E  E       +Q        +H        H 
|---------------------------|-------------------| 
|-----------20b22===(22)----|-(22)r-------------| 
|---------------------------|-------------------| 
|---------------------------|-------------------| 
|---------------------------|-------------------| 
|---------------------------|-------------------| 
 
 
  +Q   E E E E Q    Q  E E E E Q 
|-----------------|--------------|| 
|-(3)------3-3----|--------------|| 
|-(0)------2-2----|----8s7-8s7-5-|| 
|-(0)------0-0----|----8s7-8s7-5-|| 
|-(x)--2h3--------|--------------|| 
|-(3)-------------|--------------|| 
 
 
 
 Pre-Chorus 
           PM|         PM|       PM--| 
  Q  E E E E E   E   E E E   E E E E E   H    H      H    +E  S S Q 
|------------------|-5---------5-------|-----------|-----------------| 
|----3-------------|-5---------5-------|-8----7----|-----------------| 
|-2--2-0-2---------|-2---------2-------|-9----7----|-5----(5)-0-0-0--| 
|-2--4-0-2-------2-|-2---------2-------|-7----7----|-5----(5)-0-0-0--| 
|-0--0-0-0-------0-|---------0-------0-|-0----0----|-0----(0)--------| 
|----------0-3b4---|---0-3b4-----0-2---|-----------|-----------------| 
 
 
              PM 
  E E E E   E E E   E   E E E   E E E E E   H    H      H.      S E. 
|---------------------|-5-----------------|-----------|---------------|| 
|---------------------|-5-----------------|-8----7----|---------------|| 
|-2-2-------2-------2-|-2---------2-------|-7----7----|-5-------5-0---|| 
|-2-2-4-----2-------2-|-2---------2-------|-9----7----|-5-------5-0---|| 
|-0-0-0-----0-------0-|---------0-0-----0-|-0----0----|-0-------------|| 
|-------3b4---0-3b4---|---0-3b4-----0-2---|-----------|---------------|| 
 
 
 Bridge 
  H.      E E   +Q   E E +Q   E E   +H     +E  E E E   +Q.   Q.   E E 
|-------------|-------------------|--------------0-0-|-(0)-------------| 
|-------------|-----------------3-|-(3)----(3)---3-3-|-(3)---3---------| 
|-2-------4-6-|-(6)--4-2-(2)--4-2-|-(2)----(2)-2-2-2-|-(2)---2----2p0--| 
|-4-------6-7-|-(7)--6-4-(4)--6-0-|-(0)----(0)-0-0-0-|-(0)---0---------| 
|-------------|-------------------|------------------|-----------------| 
|-------------|-------------------|------------------|-----------------| 
 
 
  H.      E E   +Q   E E +Q   E E 
|-------------|-------------------| 
|-------------|-----------------3-| 
|-2-------4-6-|-(6)--4-2-(2)--4-2-| 
|-4-------6-7-|-(7)--6-4-(4)--6-0-| 
|-------------|-------------------| 
|-------------|-------------------| 
| 
| Gtr II 
| W              W 
|-------------|-------------------| 
|-------------|-------------------| 
|-------------|-------------------| 
|-------------|-------------------| 
|-------------|-------------------| 
|-------------|-------------------| 
 
 
                                ~~~ 
  +H     +E  E E E   +H         Q      +E     +E 
|--------------0-0-|-(0)----------------------------| 
|-(3)----(3)---3-3-|-(3)----------------------------| 
|-(2)----(2)-2-2-2-|-(2)----------------------------| 
|-(0)----(0)-0-0-0-|-(0)----------------------------| 
|------------------|--------------------------------| 
|------------------|------------3------(3)b4==(4)r--| 
| 
|                     1.5______________/ 
|  W                  H        +E  +E  +E     +E 
|------------------|--------------------------------| 
|------------------|--------------------------------| 
|------------------|--------------------------------| 
|------------------|--------------------------------| 
|------------------|--------------------------------| 
|------------------|--0--------(0)-(0)-(0)----(0)---| 
 
 
 Re - Intro 
  E E E E E E      +E   E   Q  E E +e  q  E 
|-------------------------|-----------------| 
|-------------------------|------2-(2)-3--3-| 
|-2-2-2---2---------------|------2-(2)-2--0-| 
|-2-2-4---2---------------|------2-(2)-4--0-| 
|-0-0-0---0---------------|------0-(0)-0--x-| 
|-------3---3b3.5=(3.5)r--|---------------3-| 
 
 
                       |---6---| |-3-| 
  +Q   E E E E Q    Q  E S S S S S S S T T T T Q 
|-----------------|----------------------------------| 
|-(3)------3-3----|----------------------------------| 
|-(0)------2-2----|------0-2-0-2-0-2-0-4-0-4-0-0tr2--| 
|-(0)------0-0----|----------------------------------| 
|-(x)--2h3--------|----------------------------------| 
|-(3)-------------|----------------------------------| 
 
 
  Q  E E E E +Q          +E   E E E +e  q  E 
|----------------------|-------------------3-| 
|----------------------|----------2-(2)-3--3-| 
|-2--2---2-------------|----------2-(2)-2--0-| 
|-2--4---2-5-(5)b5.5===|=(5.5)r---2-(2)-4--0-| 
|-0--0---0-------------|----------0-(0)-0--x-| 
|------3---------------|-------------------3-| 
 
 
  +Q   E E E E Q    Q  E E E E E E 
|-(3)-------------|-----------------|| 
|-(3)------3-3----|-----------------|| 
|-(0)------2-2----|------8s7s8-7s5--|| 
|-(0)------0-0----|------8s7s8-7s5--|| 
|-(x)--2h3--------|-----------------|| 
|-(3)-------------|-----------------|| 
 
 
 Verse 2 
  E E E E      E   E     Q    Q   E E +e  q  E 
|---------------------------|----------------3-| 
|---------------------------|-------------3--3-| 
|-2-2-2--------2------------|-------2-(2)-2--0-| 
|-2-2-4--------2------------|-------2-(2)-4--0-| 
|-0-0-0--------0------------|-------0-(0)-0--x-| 
|-------3b3.5------3b3.5----|----------------3-| 
| 
| Gtr II 
| H            E  +Q.         Q.    E  H 
|---------------------------|------------------| 
|---------------------------|------------------| 
|-------------14-(14)s======|=7---------------| 
|-------------14-(14)s======|=7---------------| 
|-------------12-(12)s======|=5---------------| 
|---------------------------|------------------| 
 
 
  +Q   E E E E Q    Q  E S S E S S Q 
|-(3)-------------|--------------------| 
|-(3)------3-3----|--------------------| 
|-(0)------2-2----|------5-5-5-0-0-0---| 
|-(0)------0-0----|------5-5-5-0-0-0---| 
|-(x)--2h3--------|------3-3-3---------| 
|-(3)-------------|------------3-3-3---| 
| 
|  W                W 
|-----------------|--------------------| 
|-----------------|--------------------| 
|-----------------|--------------------| 
|-----------------|--------------------| 
|-----------------|--------------------| 
|-----------------|--------------------| 
 
 
  E E E E     E   Q.     Q  E E E q  E   +Q   E E E E Q    Q  E S S E S S Q 
|----------------------|---------------|-----------------|------------------|| 
|----------------------|----------3--3-|-(3)------3-3----|------------------|| 
|-2-2-2-------2-/{2}---|------2---2--0-|-(0)------2-2----|------5-5-5-0-0-0-|| 
|-2-2-4-------2--------|------2---4--0-|-(0)------0-0----|------5-5-5-0-0-0-|| 
|-0-0-0-------0--------|------0---0--x-|-(x)--2h3--------|------3-3-3-------|| 
|-------3b3.5----------|-------------3-|-(3)-------------|------------3-3-3-|| 
 
 
 Pre-Chorus 
           PM|         PM|       PM--| 
  Q  E E E E E   E   E E E   E E E E E   H    H      H    +E  S S Q 
|------------------|-5---------5-------|-----------|-----------------| 
|----3-------------|-5---------5-------|-8----7----|-----------------| 
|-2--2-0-2---------|-2---------2-------|-9----7----|-5----(5)-0-0-0--| 
|-2--4-0-2-------2-|-2---------2-------|-7----7----|-5----(5)-0-0-0--| 
|-0--0-0-0-------0-|---------0-------0-|-0----0----|-0----(0)--------| 
|----------0-3b4---|---0-3b4-----0-2---|-----------|-----------------| 
 
 
              PM 
  E E E E   E E E   E   E E E   E E E E E   H    H      H.      S E. 
|---------------------|-5-----------------|-----------|---------------|| 
|---------------------|-5-----------------|-8----7----|---------------|| 
|-2-2-------2-------2-|-2---------2-------|-7----7----|-5-------5-0---|| 
|-2-2-4-----2-------2-|-2---------2-------|-9----7----|-5-------5-0---|| 
|-0-0-0-----0-------0-|---------0-0-----0-|-0----0----|-0-------------|| 
|-------3b4---0-3b4---|---0-3b4-----0-2---|-----------|---------------|| 
 
 
 Bridge 
  H.      E E   +Q   E E +Q   E E   +H     +E  E E E   +Q.   Q.   E E 
|-------------|-------------------|--------------0-0-|-(0)-------------| 
|-------------|-----------------3-|-(3)----(3)---3-3-|-(3)---3---------| 
|-2-------4-6-|-(6)--4-2-(2)--4-2-|-(2)----(2)-2-2-2-|-(2)---2----2p0--| 
|-4-------6-7-|-(7)--6-4-(4)--6-0-|-(0)----(0)-0-0-0-|-(0)---0---------| 
|-------------|-------------------|------------------|-----------------| 
|-------------|-------------------|------------------|-----------------| 
 
 
  H.      E E   +Q   E E +Q   E E   +H     +E  E E E   +Q    H. 
|-------------|-------------------|--------------0-0-|-(0)---------|| 
|-------------|-----------------3-|-(3)----(3)---3-3-|-(3)---------|| 
|-2-------4-6-|-(6)--4-2-(2)--4-2-|-(2)----(2)-2-2-2-|-(2)---------|| 
|-4-------6-7-|-(7)--6-4-(4)--6-0-|-(0)----(0)-0-0-0-|-(0)---------|| 
|-------------|-------------------|------------------|-------------|| 
|-------------|-------------------|------------------|------17----|| 
 
 
 Chorus 
  E E E   E E E E E   +H     Q  Q    E E E E E E E E   +H     Q  E E 
|-------------------|--------------|-----------------|----------------| 
|-------------------|--------------|-----------------|----------------| 
|-2-2-----2-2-5---7-|-(7)----0--5--|-2-2-----2-5-0-7-|-(7)----0--5s4--| 
|-2-2-----2-2-5---7-|-(7)----0--5--|-2-2-----2-5-0-7-|-(7)----0--5s4--| 
|-0-0-----0-0---0---|--------------|-0-0---0-0-------|----------------| 
|-----3b4-----------|--------------|-----3-----------|----------------| 
 
 
      PM--| 
  E E E   E E E E E   +H     Q  E E   E E E     E E Q  E   +W 
|-------------------|---------------|--------------------|--------|| 
|-------------------|---------------|--------------------|--------|| 
|-2-2-------2-5---7-|-(7)----0--5s4-|-2-2---------2-5--7-|-(7)----|| 
|-2-2-------2-5-0-7-|-(7)----0--5s4-|-2-2---------2-5--7-|-(7)----|| 
|-0-0-----0-0---0---|---------------|-0-0-------0-0----0-|-(0)----|| 
|-----3b4-----------|---------------|-----3b3.5----------|--------|| 
 
 
 Guitar Solo 
   S   S  S  S     S  S  S  S     S  S  S  S     S  S  S  S 
|-14--------------14-------------17-------------17-------------| 
|-----17p14----------17p14----------17p14----------17p14-------| 
|-----------16b17----------16b17----------16b17----------16b17-| 
|--------------------------------------------------------------| 
|--------------------------------------------------------------| 
|--------------------------------------------------------------| 
| 
| Gtr II 
|  H.                                            E     E 
|--------------------------------------------------------------| 
|--------------------------------------------------------------| 
|--2---------------------------------------------4-----6-------| 
|--4---------------------------------------------6-----7-------| 
|--------------------------------------------------------------| 
|--------------------------------------------------------------| 
 
 
   S   S  S  S  S  S  S  S  S   S  S  S  S  S  S  S 
|-17--16-14-----------------------------------------| 
|-----------17-15p14--------------------------------| 
|--------------------17-16-14-----------------------| 
|------------------------------16-14----------------| 
|------------------------------------16-15-14s12h14-| 
|---------------------------------------------------| 
| 
| +Q            E     E    +Q            E     E 
|---------------------------------------------------| 
|----------------------------------------------3----| 
|-(6)-----------4-----2----(2)-----------4-----2----| 
|-(7)-----------6-----4----(4)-----------6-----0----| 
|---------------------------------------------------| 
|---------------------------------------------------| 
 
 
   S   S  S  S  S  S  S  S  S   S  S  S  S  S  S  S 
|---------------------------------------------14h15----| 
|---------------------------------------15h17----------| 
|--------------11----11s12-14--12-14s16----------------| 
|-12p=11-12h14----14-----------------------------------| 
|------------------------------------------------------| 
|------------------------------------------------------| 
| 
| +H                       +E      E     E     E 
|----------------------------------------0-----0-------| 
|-(3)----------------------(3)-----------3-----3-------| 
|-(2)----------------------(2)-----2-----2-----2-------| 
|-(0)----------------------(0)-----0-----0-----0-------| 
|------------------------------------------------------| 
|------------------------------------------------------| 
 
 
   ~~~       ~~~~~~~~ 
   Q.    E   Q   +E E    S   S  S  S  S  S  S  S  S  S  S  S  S  S  S  S 
|-14------------------|--------------------------------------------------| 
|-------17--17--(17)--|--------------------------------------14h15-14h15p| 
|---------------------|--------------------------------14-16-------------| 
|---------------------|--------------------14----16-14-------------------| 
|---------------------|--------14----16-14----16-------------------------| 
|---------------------|-17--14----17-------------------------------------| 
| 
| +Q.    Q.       E E    H.                                   E     E 
|-(0)-----------------|--------------------------------------------------| 
|-(3)----3------------|--------------------------------------------------| 
|-(2)----2--------2p0-|--2------------------------------------4-----6----| 
|-(0)----0------------|--4------------------------------------6-----7----| 
|---------------------|--------------------------------------------------| 
|---------------------|--------------------------------------------------| 
 
 
                                     ~~~ 
   |-------5-------|        |--3--|         |--3--| 
   S   S  S  S  T  T  S  S  S  S  S  Q   E  S  S  S 
|---------------------------------------------------| 
|-14h=15p14h15p14h15p14h15p14-15p14--------10h14p10-| 
|-----------------------------------16--------------| 
|---------------------------------------------------| 
|---------------------------------------------------| 
|---------------------------------------------------| 
| 
| +Q                  E     E       +Q   E  E 
|---------------------------------------------------| 
|-------------------------------------------3-------| 
|-(6)-----------------4-----2-------(2)--4--2-------| 
|-(7)-----------------6-----4-------(4)--6--0-------| 
|---------------------------------------------------| 
|---------------------------------------------------| 
 
 
   |--3---|  |--3--|  |--3--|  |--3--|  |--3---|  |--3--|  |--3--|  |--3--| 
   S   S  S  S  S  S  S  S  S  S  S  S  S   S  S  S  S  S  S  S  S  S  S  S 
|-10h=14p10----------10h14p10----------10h=14p10----------10h15p10----------| 
|-----------10h14p10----------10h14p10-----------10h14p10----------10h15p10-| 
|---------------------------------------------------------------------------| 
|---------------------------------------------------------------------------| 
|---------------------------------------------------------------------------| 
|---------------------------------------------------------------------------| 
| 
| +H                                   +E         E        E        E 
|----------------------------------------------------------0--------0-------| 
|-(3)----------------------------------(3)-----------------3--------3-------| 
|-(2)----------------------------------(2)--------2--------2--------2-------| 
|-(0)----------------------------------(0)--------0--------0--------0-------| 
|---------------------------------------------------------------------------| 
|---------------------------------------------------------------------------| 
 
 
   |--3---|  |--3--|  |--3--|  |--3--|               |--3--| 
   S   S  S  S  S  S  S  S  S  S  S  S   S  S  S  S  S  S  Q 
|-10h=14p10----------10h15p10----------/17h19p17h19p17h19p17---| 
|-----------10h14p10----------10h15p10-------------------------| 
|--------------------------------------------------------------| 
|--------------------------------------------------------------| 
|--------------------------------------------------------------| 
|--------------------------------------------------------------| 
| 
| +Q.                          Q.                    E     E 
|-(0)----------------------------------------------------------| 
|-(3)--------------------------3-------------------------------| 
|-(2)--------------------------2---------------------2p====0---| 
|-(0)--------------------------0-------------------------------| 
|--------------------------------------------------------------| 
|--------------------------------------------------------------| 
 
 
   T     T          T     T          T     T          T      T 
   |------6------|  |------6------|  |------6------|  |-------6--------| 
   S  S  S  S S  S  S  S  S  S S  S  S  S  S  S S  S  S   S  S  S S    S 
|-17p12-17p12p9h12-17p12-17p12p9h12-17p12-17p12p9h12-17p=12-17p12p9h==12-| 
|------------------------------------------------------------------------| 
|------------------------------------------------------------------------| 
|------------------------------------------------------------------------| 
|------------------------------------------------------------------------| 
|------------------------------------------------------------------------| 
| 
|  H.                                                +E         S   S 
|------------------------------------------------------------------------| 
|--2-------------------------------------------------(2)-----------------| 
|--2-------------------------------------------------(2)-----------------| 
|--2-------------------------------------------------(2)-----------------| 
|--0-------------------------------------------------(0)-----------------| 
|---------------------------------------------------------------0---0----| 
 
 
   T     T           T     T           T     T           T      T 
   |------6-------|  |------6-------|  |------6-------|  |--------6--------| 
   S  S  S  S  S  S  S  S  S  S  S  S  S  S  S  S  S  S  S   S  S  S  S    S 
|------------------------------------------------------------------------------| 
|-18p13-18p13p10h13-18p13-18p13p10h13-18p13-18p13p10h13-18p=13-18p13p10h==13---| 
|------------------------------------------------------------------------------| 
|------------------------------------------------------------------------------| 
|------------------------------------------------------------------------------| 
|------------------------------------------------------------------------------| 
| 
|  H.                                                   +E         S    S 
|------------------------------------------------------------------------------| 
|------------------------------------------------------------------------------| 
|------------------------------------------------------------------------------| 
|--3----------------------------------------------------(3)--------------------| 
|--3----------------------------------------------------(3)--------x----x------| 
|--1----------------------------------------------------(1)--------x----x------| 
 
 
   T     T           T     T           T     T           T      T 
   |------6-------|  |------6-------|  |------6-------|  |--------6--------| 
   S  S  S  S  S  S  S  S  S  S  S  S  S  S  S  S  S  S  S   S  S  S  S    S 
|----------------------------------------------------------------------------| 
|----------------------------------------------------------------------------| 
|-19p14-19p14p11h14-19p14-19p14p11h14-19p14-19p14p11h14-19p=14-19p14p11h==14-| 
|----------------------------------------------------------------------------| 
|----------------------------------------------------------------------------| 
|----------------------------------------------------------------------------| 
| 
|  H.                                                   +E         S    S 
|----------------------------------------------------------------------------| 
|----------------------------------------------------------------------------| 
|--7----------------------------------------------------(7)------------------| 
|--7----------------------------------------------------(7)------------------| 
|--5----------------------------------------------------(5)--------0----0----| 
|------------------------------------------------------------------0----0----| 
 
 
   T     T           T     T 
   |------3-------|  |------3-------| 
   S  S  S  S  S  S  S  S  S  S  S  S  H 
|--------------------------------------------| 
|--------------------------------------------| 
|--------------------------------------------| 
|-20p15-20p15p12h15-20p15-20p15p12h15-12----| 
|--------------------------------------------| 
|--------------------------------------------| 
| 
|  W 
|--------------------------------------------| 
|--------------------------------------------| 
|--3-----------------------------------------| 
|--3-----------------------------------------| 
|--1-----------------------------------------| 
|--------------------------------------------| 
 
 
   T    T        T    T        T    T        T     T 
   |----6-----|  |----6-----|  |----6-----|  |------6------| 
   S S  S S S S  S S  S S S S  S S  S S S S  S  S  S S S   S 
|-12p7-12p7p4h7-12p7-12p7p4h7-12p7-12p7p4h7-12p=7-12p7p4h==7-| 
|------------------------------------------------------------| 
|------------------------------------------------------------| 
|------------------------------------------------------------| 
|------------------------------------------------------------| 
|------------------------------------------------------------| 
| 
|  H.                                       +E       S   S 
|------------------------------------------------------------| 
|------------------------------------------------------------| 
|--9----------------------------------------(9)--------------| 
|--9----------------------------------------(9)------0---0---| 
|--7----------------------------------------(7)------0---0---| 
|------------------------------------------------------------| 
 
 
   T    T           T    T           T    T           T    T 
   |------6------|  |------6------|  |------6------|  |---6----| 
   S S  S  S  S  S  S S  S  S  S  S  S S  S  S  S  S  S S  S S E 
|---------------------------------------------------------------------| 
|-13p8-13h20p17h20-13p8-13h20p17h20-13p8-13h20p17h20-13p8-13p8p5------| 
|---------------------------------------------------------------------| 
|---------------------------------------------------------------------| 
|---------------------------------------------------------------------| 
|---------------------------------------------------------------------| 
| 
|  H.                                                 E      S   S 
|---------------------------------------------------------------------| 
|----------------------------------------------------------------2----| 
|--5-------------------------------------------------------------2----| 
|--5-------------------------------------------------------------2----| 
|--3--------------------------------------------------0----------0----| 
|---------------------------------------------------------------------| 
 
 
   T    T        T    T        T    T        T    T 
   |----3-----|  |----3-----|  |----3-----|  |---3----| 
   S S  S S S S  S S  S S S S  S S  S S S S  S S  S S E 
|-------------------------------------------------------| 
|-------------------------------------------------------| 
|-14p9-14p9p6h9-14p9-14p9p6h9-14p9-14p9p6h9-14p9-14-6h9-| 
|-------------------------------------------------------| 
|-------------------------------------------------------| 
|-------------------------------------------------------| 
| 
|  W 
|-------------------------------------------------------| 
|-------------------------------------------------------| 
|--2----------------------------------------------------| 
|--2----------------------------------------------------| 
|--0----------------------------------------------------| 
|-------------------------------------------------------| 
 
 
   T     T          T     T 
   |------6------|  |------6------| 
   S  S  S  S S  S  S  S  S  S S  S  a Q    Q 
|--------------------------------------------------|| 
|--------------------------------------------------|| 
|--------------------------------------------------|| 
|-15p10-15p10p7h10-15p10-15p10p7h10-10p7----------|| 
|-------------------------------------------x-----|| 
|--------------------------------------------------|| 
| 
|  E        E       E        E         E  E E  E 
|--------------------------------------------------|| 
|--------------------------------------------------|| 
|--------------------------------------------------|| 
|--3--------3-------3--------3---------3--3-3------|| 
|--3--------3-------3--------3---------3--3-3------|| 
|--1--------1-------1--------1---------1--1-1--0---|| 
 
 
 Chorus 
  Q  E   E E E E E   +H          Q   Q 
|------------------|---------------------------| 
|------------------|---------------------------| 
|-2--------2-5-0-7-|-(7)---------0---5---------| 
|-2--------2-5-0-7-|-(7)---------0---5---------| 
|-0------0-0-0---0-|-(0)-----------------------| 
|----3b4-----------|---------------------------| 
| 
| W                   E  E   E E E E S   +S  E 
|------------------|-----------5---------------| 
|------------------|---------5---8-5-----------| 
|------------------|-----7b9---------7b9r(7)-5-| 
|------------------|---------------------------| 
|------------------|---------------------------| 
|------------------|---------------------------| 
 
 
  Q  E   E E E E E   +H        Q   E S S 
|------------------|----------------------| 
|------------------|----------------------| 
|-2------2-2-5-0-7-|-(7)-------0---0-x-2--| 
|-2------2-2-5-0-7-|-(7)-------0---0-x-2--| 
|-0------0-0-0---0-|-(0)---------------0--| 
|----3b4-----------|----------------------| 
| 
| W                   E  E E E E E E E 
|------------------|----------------------| 
|------------------|----------------------| 
|------------------|----------------------| 
|------------------|-----7-5--------------| 
|------------------|---------7-6-5-3------| 
|------------------|----------------------| 
 
 
  E E E   E E E E E   +H               Q           Q 
|-------------------|-------------------------------------------| 
|-------------------|-------------------------------------------| 
|-2-2-------2-5-0-7-|-(7)--------------0-----------5------------| 
|-2-2-------2-5-0-7-|-(7)--------------0-----------5------------| 
|-0-0-----0-0-0-0-0-|-(0)---------------------------------------| 
|-----3b4-----------|-------------------------------------------| 
| 
| W                    E   Q      +E   S  S  S  S  S  S  E 
|-------------------|-----20b22r=(20)-17----17------------------| 
|-------------------|--------------------20----20-17------------| 
|-------------------|--------------------------------19-17b17.5-| 
|-------------------|-------------------------------------------| 
|-------------------|-------------------------------------------| 
|-------------------|-------------------------------------------| 
 
 
   Q   E    E E Q  E   +W 
|--------------------|--------|| 
|--------------------|--------|| 
|--2----------2-5--7-|-(7)----|| 
|--2----------2-5--7-|-(7)----|| 
|--0--------0-0-0--0-|-(0)----|| 
|------3b4-----------|--------|| 
| 
|  q   E    E H         W 
|--------------------|--------|| 
|--------------------|--------|| 
|--------------------|--------|| 
|-19--17---19--------|--------|| 
|--------------------|--------|| 
|--------------------|--------|| 
 
 
 Re - Intro 
  E E E E   E E    +E   E   Q  E E +e  q  E 
|-------------------------|---------------3-| 
|-------------------------|------2-(2)-3--3-| 
|-2-2-2-----2-------------|------2-(2)-2--0-| 
|-2-2-4-----2-------------|------2-(2)-4--0-| 
|-0-0-0-----0-------------|------0-(0)-0--x-| 
|-------3b4---3b4==(4)r---|---------------3-| 
 
 
                          |-3-| |-3-| |-3-| |-3-| 
  +E  E E E E E Q    Q  E S S S S S S S S S S S S E 
|-(3)-3------------|----------------------------------| 
|-(3)-3-----3-3----|----------------------------------| 
|-(0)-0-----2-2----|------4p2p0-4p2p0-----------------| 
|-(0)-0-----0-0----|------------------4p2p0-----------| 
|-(x)-x-2h3--------|------------------------3p2p0-----| 
|-(3)-3------------|------------------------------3b5-| 
 
 
  E E E E   E E    +E   E    Q   E E +e  q  E 
|-------------------------|-------------------| 
|-------------------------|--------------3--3-| 
|-2-2-2-----2-------------|--------2-(2)-2--0-| 
|-2-2-4-----2-------------|--------2-(2)-4--0-| 
|-0-0-0-----0-------------|--------0-(0)-0--2-| 
|-------3b4---3b5==(5)r---|-----------------3-| 
| 
| Gtr II 
| H         E Q.            +H        H 
|-------------------------|-------------------| 
|-------------------------|-------------------| 
|-------------2-----------|-(2)---------------| 
|-------------2-----------|-(2)---------------| 
|-------------0-----------|-(0)---------------| 
|-------------------------|-------------------| 
 
 
  +Q   E E E E Q    Q  E E E E Q 
|-----------------|----------------|| 
|-(3)------3-3----|----------------|| 
|-(0)------2-2----|----8s7-8s7-5---|| 
|-(0)------0-0----|----8s7-8s7-5---|| 
|-(2)--2-3--------|----------------|| 
|-(3)-------------|----------------|| 
| 
|  W                W 
|-----------------|----------------|| 
|-----------------|----------------|| 
|-----------------|----------------|| 
|-----------------|----------------|| 
|-----------------|----------------|| 
|-----------------|----------------|| 
 
 
 Verse 3 
  Q  E E E E +Q          +E   E E E +e  q  E 
|----------------------|-------------------3-| 
|----------------------|----------2-(2)-3--3-| 
|-2--2---2-------------|----------2-(2)-2--0-| 
|-2--4---2-5-(5)b5.5===|=(5.5)r---2-(2)-4--0-| 
|-0--0---0-------------|----------0-(0)-0--x-| 
|------3---------------|-------------------3-| 
 
 
  +Q   E E E E Q    Q  E S S E S S Q 
|-----------------|--------------------| 
|-(3)------3-3----|--------------------| 
|-(0)------2-2----|------5-5-5-0-0-0---| 
|-(0)------0-0----|------5-5-5-0-0-0---| 
|-(x)--2h3--------|------3-3-3---------| 
|-(3)-------------|------------3-3-3---| 
 
 
  E E E E E E      +E   E   Q  E E E q  E 
|-------------------------|---------------| 
|-------------------------|----------3--3-| 
|-2-2-2---2---------------|------2---2--0-| 
|-2-2-4---2---------------|------2---4--0-| 
|-0-0-0---0---------------|------0---0--x-| 
|-------3---3b3.5=(3.5)r--|-------------3-| 
 
 
  +Q   E E E E Q    Q  E S S E S S Q 
|-----------------|--------------------|| 
|-(3)------3-3----|--------------------|| 
|-(0)------2-2----|------5-5-5-0-0-0---|| 
|-(0)------0-0----|------5-5-5-0-0-0---|| 
|-(x)--2h3--------|------3-3-3---------|| 
|-(3)-------------|------------3-3-3---|| 
 
 
 Pre-Chorus 
           PM|         PM|       PM--| 
  Q  E E E E E   E   E E E   E E E E E   H    H      H    +E  S S Q 
|------------------|-5---------5-------|-----------|-----------------| 
|----3-------------|-5---------5-------|-8----7----|-----------------| 
|-2--2-0-2---------|-2---------2-------|-9----7----|-5----(5)-0-0-0--| 
|-2--4-0-2-------2-|-2---------2-------|-7----7----|-5----(5)-0-0-0--| 
|-0--0-0-0-------0-|---------0-------0-|-0----0----|-0----(0)--------| 
|----------0-3b4---|---0-3b4-----0-2---|-----------|-----------------| 
 
 
                                 PM 
  Q  E E   E E E E   E E E   E E E E E   H    H      H.      S E. 
|------------------|-------------------|-----------|---------------|| 
|------------------|-------------------|-8----7----|---------------|| 
|-2--2-----2---5s4-|-2---------2-2-----|-7----7----|-5-------5-0---|| 
|-2--2-----2-0-5s4-|-2---------2-2-----|-9----7----|-5-------5-0---|| 
|-0--0-----0-0-----|-0-------0-0-0---0-|-0----0----|-0-------------|| 
|------3b4---------|---0-3b4-------0---|-----------|---------------|| 
 
 
 Chorus 
  E E E   E E E E E   +H     Q  Q    E E E E E E E E   +H     Q  E E 
|-------------------|--------------|-----------------|----------------| 
|-------------------|--------------|-----------------|----------------| 
|-2-2-----2-2-5---7-|-(7)----0--5--|-2-2-----2-5-0-7-|-(7)----0--5s4--| 
|-2-2-----2-2-5---7-|-(7)----0--5--|-2-2---2-2-5-0-7-|-(7)----0--5s4--| 
|-0-0-----0-0---0-0-|-(0)----------|-0-0---0-0-------|----------------| 
|-----3b4-----------|--------------|-----3-----------|----------------| 
|-Rhy Fig 1                                             end Rhy Fig 1-| 
 
 
Gtr I plays Rhy Fig 1 to end 
  Gtr II 
  W                    W             W                  H      E  E  E  E 
|-------------------|--------------|-----------------|--------10s12-12s10--|| 
|-------------------|--------------|-----------------|---------8s10-10s=8--|| 
|-------------------|--------------|-----------------|---------------------|| 
|-------------------|--------------|-----------------|---------------------|| 
|-------------------|--------------|-----------------|--------10s12-12s10--|| 
|-------------------|--------------|-----------------|---------------------|| 
 
 
 Outro 
  W                    H      E  E  E  E 
|-------------------|--------10s12-12s10-| 
|-------------------|---------8s10-10s=8-| 
|-------------------|--------------------| 
|-------------------|--------------------| 
|-------------------|--------10s12-12s10-| 
|-------------------|--------------------| 
 
 
  W                  H      E  E  E  E 
|-----------------|--------10s12-12s10--| 
|-----------------|---------8s10-10s=8--| 
|-----------------|---------------------| 
|-----------------|---------------------| 
|-----------------|--------10s12-12s10--| 
|-----------------|---------------------| 
 
 
   E E Q     H            H      E  E  E  E 
|-12-----------------||---------10s12-12s10-| 
|-10-----------------||o---------8s10-10s=8-| 
|--------------------||---------------------| 
|--------------------||---------------------| 
|-12-----------------||o--------10s12-12s10-| 
|--------------------||---------------------| 
 
 
   E  E  E E H          H      E  E  E  E 
|-12-12s10-----------|--------10s12-12s10--| 
|-10-10s=8-----------|---------8s10-10s=8--| 
|--------------------|---------------------| 
|--------------------|---------------------| 
|-12-12s10-----------|--------10s12-12s10--| 
|--------------------|---------------------| 
 
 
   E E Q     H          H      E  E  E  E    E  E  E E H 
|-12-----------------|--------10s12-12s10-|-12-12s10------------|| 
|-10-----------------|---------8s10-10s=8-|-10-10s=8-----------o|| 
|--------------------|--------------------|---------------------|| 
|--------------------|--------------------|---------------------|| 
|-12-----------------|--------10s12-12s10-|-12-12s10-----------o|| 
|--------------------|--------------------|---------------------|| 
 
_______________________________________________________ 
Contribuição: Rafael da Sillva Carvalho Santana([email protected]) 

	  

Full key step upFull key step up
Half key step upHalf key step up
Half key step downHalf key step down
Full key step downFull key step down
Search Paypal
auto scroll beats size up size down change color hide chords drawings
tab show chords e-chords YouTube Clip e-chords hide all tabs e-chords go to top tab