One Man Army

Back Then

One Man Army

tabs

by  JESSGOMES

save to print version add songbook text version e-mail correct tuner
chordsukulelecavacokeyboardtabbassdrumsharmonicaflute Guitar Pro
close

there isn't a video lesson for this song

chords

Back Then

	  		- 

Song Order 
Intro Riff 
Verse x6 
Chorus 
Riff x2 
Verse x6 
Chorus 
Verse x 2 
Riff x 3 (fade out) 

Riff (Intro) 
e|-----12--------------------------------------------------------------------| 
B|--9------9--12--------------------------------------9----------------------| 
G|----------------11-----7--8--11--11----------6--9---9---xx--99--11--11-----| 
D|---------------------------------------9--9-------------xx--77---9---9-----| 
A|---------------------------------------------------------------------------| 
E|---------------------------------------------------------------------------| 

e|----12---------------------------------------------------------------------| 
B|-9------9--12--------------------------------9---------------------12------| 
G|---------------11----7--8--11--11-------6-9--9---14-13-11-9--11b13----11-9-| 
D|-----------------------------------9-9-------------------------------------| 
A|---------------------------------------------------------------------------| 
E|---------------------------------------------------------------------------| 

Bass Intro 
G|---------------------------------------------------------------------------| 
D|---------------------------------------------------------------------------| 
A|--7--77-7------------------------------------------------------------------| 
E|----------7-7-7--9-9-9---55--77--------------------------------------------| 



Verse 
e|---------------------------------------------------------------------------| 
B|---------------------------------------------------------------------------| 
G|--9-99-----------------------xxx--9-9--11--11------------------------------| 
D|--9-99--9-8-9-8--11--x--11---xxx--7-7---9---9------------------------------| 
A|--7-77--9-8-9-8--11--x--11-------------------------------------------------| 
E|--------7-6-7-6---9--x---9-------------------------------------------------| 

Bass verse 1 
G|---------------------------------------------------------------------------| 
D|---------------------------------------------------------------------------| 
A|---7-7---------------------------------------------------------------------| 
E|--------7-6-7-6----9-99-99---55--777---------------------------------------| 

Bass verse 2 
G|---------------------------------------------------------------------------| 
D|----6-7-8-9----------------------------------------------------------------| 
A|--7----------------------8-9-10-11-----------------------------------------| 
E|-------------7-6-7-6---9------------55---77--------------------------------| 



Chorus 
e|---------------------------------------------------------------------------| 
B|---------------------------------------------------------------------10~---| 
G|-9~--11~---14~---9b--9b-9b---11b-11b-11b--9~--------11--11--9~-------------| 
D|-9~--11~---14~----------------------------7~---------9---9--7~-------------| 
A|-7~---9~---12~-------------------------------------------------------------| 
E|---------------------------------------------------------------------------| 
                                                  Play this 3 times 

Bass Chorus 1 
G|---------------------------------------------------------------------------| 
D|---------------------------------------------------------------------------| 
A|--7-77---9-99----12-12-12----77--99--77------------------------------------| 
E|---------------------------------------------------------------------------| 

Bass Chorus 2 
G|---------------------------------------------------------------------------| 
D|---------------------------------------------------------------------------| 
A|------11-12121212----11-12121212-----11-12121212---------------------------| 
E|---------------------------------------------------------------------------| 

************************************ 

| /   slide up 
| \   slide down 
| h   hammer-on 
| p   pull-off 
| ~   vibrato 
| +   harmonic 
| x   Mute note 
| b   Bend 
| pb  Pre-bend 
| br  Bend release 
| pbr Pre-bend release 
| brb Bend release bend 

************************************ 
		  

See also:

tabs Ira! - Vitrine Viva tabs Deep Purple - Black Knight tabs Deep Purple - Demonds Eye tabs Deep Purple - Smoke on the Water (ver. 2) tabs Deep Purple - Clearly Quite Absurd tabs Ira! - Envelheço na Cidade (intro)
e-chords

Other versions:

tabs One Man Army - Back Then
auto scroll beats size up size down change color hide chords drawings
tab show chords e-chords YouTube Clip e-chords hide all tabs e-chords go to top tab

share