Oasis

home > Oasis

Where Did It All Go Wrong Tab

Oasis

Difficulty: EasyEasy

tuner correct add songbook print version text version save to e-mail
chordsukulelecavacokeyboardtabbassdrumsharmonicsflute Guitar Pro
chords

Where Did It All Go Wrong

  		Riff 1
------
S             S
-------------------
----10----10-------
/11----11----11\---
-------------------
-------------------
-------------------

Verso 1
-------
Em                           D
   You know that feeling you get
Em                          D
   You feel your older than time
Csus2               D
   You aint exactly sure
                           Em      D
   If you've been around a while

Verso 2
-------

Em              D
   Do you the reciepts
Em                          D
   For the friends that you buy
Csus2                 D
   And aint it bitter sweet
                         A7sus4  Csus2
You're only just getting by

Refrão
------
      Em
But I hope you know
        Em7
That it wont let go
           D                                A7sus4
It sticks around with you until the day you die
      Em
And I hope you know
         Em7
That its touch and go
           D                                     A7sus4
I hope the tears dont stain the world that waits outside
                    Csus4
Where did it all go wrong?

Em / D (c/Riff 1) / Em / D (c/Riff 1)

Verso 3
-------

Em                   D  (Riff 1)
   And until youve repaid
Em                                   D (Riff 1)
   The dreams you've bought for your lies
Csus2              D
   You'll be cast away
                   A7sus4  Csus2
Alone under stormy skies
                   A7sus   Csus2
Alone under stormy skies

Refrão
------
      Em
But I hope you know
        Em7
That it wont let go
          D                                 A7sus4  
It sticks around with you until the day you die
      Em 
And I hope you know
         Em7
That its touch and go
           D                                     A7sus4
I hope the tears dont stain the world that waits outside
                    
Where did it all go wrong?

Solo
----
Csus2         G     D                   Em   Csus2         G    D             Em

    BU  BD             H  P             S        BU  BD             BU  BD
----------------------------------------------------------------15-(17)-15----12---
15-(17)-15----12-----------------------------15-(17)-15----12----------------------
--------------------11-12-11-------------------------------------------------------
-----------------------------12-14-12-12/14----------------------------------------
-----------------------------------------------------------------------------------
-----------------------------------------------------------------------------------


Csus2         G     D                   Em   Csus2                               B7        

    BU  BD             H  P             S                     
--------------------------------------------------------------------------------------------------------------
15-(17)-15----12----------------------------------------------------------------------------------------------
--------------------11-12-11----------------------------2---2-(4)-2--0----0--2-0-2-(4)-0-2-0------------------
-----------------------------12-14-12-12/14-----0----0-----------------2----------------------0-2-0-----------
----------------------------------------------2----2------------------------------------------------0-2-0-----
-----------------------------------------------------------------------------------------------------------0--

Refrão 2
--------
      Em     
But I hope you know
        Em7
That it wont let go
           D                                 A7sus4
It sticks around with you untill the day you die

      Em
And I hope you know
         Em7 
That its touch and go
           D                                     A7sus4
I hope the tears dont stain the world that waits outside

(x2)

                    Csus2  /  G   /  Em  
Where did it all go wrong?
	  

Full key step upFull key step up
Half key step upHalf key step up
Half key step downHalf key step down
Full key step downFull key step down
Search Paypal
auto scroll beats size up size down change color hide chords drawings
tab show chords e-chords YouTube Clip e-chords hide all tabs e-chords go to top tab