Oasis

home > Oasis

The Cage Tab

Oasis

Difficulty: nolevelnolevel

by jessgomes

tuner correct add songbook print version text version save to e-mail
chordsukulelecavacokeyboardtabbassdrumsharmonicsflute Guitar Pro
chords

The Cage

  		Part #1 
------- 

   D5          
d--0------------  
B--3------------  
G--2------------   x3 Then play part #2  
D--0---------0--  
A--0-------0----  
D--0---0-3------  

Riff #1 

e------------| 
B------------| 
G------------| 
D--------0-0-| 
A--0-2h3-----| 
E------------| 

Riff #2 

d--2-- 
B----0 

Part #2 
------- 

   G            D5 
d--0------------0------------ 
B--3------------3------------ 
G--0------------2------------ x4 
D--0---------0--0---------0-- 
A--2-------0----0-------0---- 
D--0---0-3------0---0-3------ 


Part #3 
------- 

A7sus4 Cadd9 D5 / Cadd9 G D5 / x2 

Little Solo #1: 


e-----------------------------------------------------------| 
B-----------------------------------------------------------| 
G--9~-9b10-7~--5b7r5------------9~-9b10--12b14r12--10b12r10-| 
D--------------------5b7r5----------------------------------| 
A--------------------------8-5------------------------------| 
E-----------------------------------------------------------| 

G--5-5-5-5h7~- 

Back to Part #1 (x1) (pause) 

Part #4 
------- 

   G     Cadd9   D5 
d--0-----0-------0------------ 
B--3-----3-------3------------ 
G--0-----0-------2------------ x2 
D--0-----2-------0---------0-- 
A--2-----3-------0-------0---- 
D--0-------------0---0-3------ 

Part #3 again 

Little Solo #2: 


e--14-14b16r14~-14------------------------------14-14b16r14~-14-------------------------------------| 
B------------------13b15r13~-------------------------------------13b15r13~--------------------------| 
G-----------------------------12b14r12~--10-7-------------------------------12b14r12~-12b14r12~-10-7| 
D---------------------------------------------------------------------------------------------------| 
A---------------------------------------------------------------------------------------------------| 
E---------------------------------------------------------------------------------------------------| 


G--5-5-5-5h7~- 

Part #1 (x1) 

Part #5 
------- 

D5 G Cadd9 D5 x4 

Cadd9 D5 x3 

Cadd9 D5 Dm Cadd9 D5 
	  

Full key step upFull key step up
Half key step upHalf key step up
Half key step downHalf key step down
Full key step downFull key step down
Search Paypal
auto scroll beats size up size down change color hide chords drawings
tab show chords e-chords YouTube Clip e-chords hide all tabs e-chords go to top tab