Oasis

home > Oasis

Lord Don Tab

Oasis

Difficulty: nolevelnolevel

by Leo%5Fnadiarossi

tuner correct add songbook print version text version save to e-mail
chordsukulelecavacokeyboardtabbassdrumsharmonicsflute Guitar Pro
chords

Lord Don

  		Intro / Verse     Listen to cd to get the rhythm right. 

     F#       E         F# 
E|----------------------------5-5-2-2----------------------------------------| 
B|----------------------------5-5-0-0----------------------------------------| 
G|---------------------------------------------------------------------------| 
D|-4--4--4--2--2--2--4--4--4---------------------------- --------------------| 
A|-4--4--4--2--2--2--4--4--4-------------------------------------------------| 
E|-1--1--1--0--0--0--1--1--1-------------------------------------------------| 

Chorus 

Say ďAlrightĒ, Dont be affraid.. 

e|-----------------------------------------------------------------------------| 
B|-----------------------------------------------------------------------------| 
G|-----------------------------------------------------------------------------| 
D|--9--9--9--9--9-9-9-9----4--4--4--4--4-4-4-4----11-11-11-11--9--9--9--9------| 
A|--9--9--9--9--9-9-9-9----4--4--4--4--4-4-4-4----11-11-11-11--9--9--9--9------| 
E|--7--7--7--7--7-7-7-7----1--1--1--1--1-1-1-1-----9--9--9--9--7--7--7--7------| 

e|---------------------------------------------------------------------------| 
B|---------------------------------------------------------------------------| 
G|---------------------------------------------------------------------------| 
D|--4--4--4--4--2--2--2--4-4-4-4-----4---------------------------------------| 
A|--4--4--4--4--2--2--2--4-4-4-4-----4---------------------------------------| 
E|--1--1--1--1--0--0--0--1-1-1-1-----1---------------------------------------| 

Keep saying that my headís locked up.. 

e|-----------------------------------------------------------------------------| 
B|-----------------------------------------------------------------------------| 
G|-----------------------------------------------------------------------------| 
D|--9--9--9--9--99999999---4--4--4--4--44444444---9--9--9--9--11-11-11-11------| 
A|--9--9--9--9--99999999---4--4--4--4--44444444---9--9--9--9--11-11-11-11------| 
E|--7--7--7--7--77777777---1--1--1--1--11111111---7--7--7--7--9--9--9--9-------| 

Over solo 

e|---------------------------------------------------------------------------| 
B|---------------------------------------------------------------------------| 
G|---------------------------------------------------------------------------| 
D|---4--4--4--2--2--2--4--4--4--4--4--4--------x4----------------------------| 
A|---4--4--4--2--2--2--4--4--4--4--4--4--------------------------------------| 
E|---1--1--1--0--0--0--1--1--1--1--1--1--------------------------------------| 

e|-----------------------------------------------------------------------------| 
B|-----------------------------------------------------------------------------| 
G|-----------------------------------------------------------------------------| 
D|--9--9--9--9--99999999---4--4--4--4--44444444---11-11-11-11--9--9--9--9------| 
A|--9--9--9--9--99999999---4--4--4--4--44444444---11-11-11-11--9--9--9--9------| 
E|--7--7--7--7--77777777---1--1--1--1--11111111---9--9--9--9---7--7--7--7------| 

To Chorus.. 

To verse.. 

Ending.. 

e|---------------------------------------------------------------------------| 
B|---------------------------------------------------------------------------| 
G|---------------------------------------------------------------------------| 
D|-4--4--4--2--2--2--4--4--4--2--2--2----------------------------------------| 
A|-4--4--4--2--2--2--4--4--4--2--2--2-------x8-------------------------------| 
E|-1--1--1--0--0--0--1--1--1--0--0--0----------------------------------------| 

e|---------------------------------------------------------------------------| 
B|---------------------------------------------------------------------------| 
G|---------------------------------------------------------------------------| 
D|--4----------------------x17-----------------------------------------------| 
A|--4------------------------------------------------------------------------| 
E|--1------------------------------------------------------------------------| 

Should be all correct, tho i might have made soem mistakes typing it up.. 
email me with corrections, or just to say what you think. 

Iím tired and Iím sick 
Got a habit that I just canít kick 
Feel hungover and Iím all in love 
When the lights go down 
Iím gonna shoot Ďem all 

Say ďAlrightĒ 
Donít be afraid 
You gotta keep dreaming in the bed you made 
And if it tastes like sh!t 
Well it beats sleeping rough on the floor 

Keep saying that my headís locked up in the clouds 
Keep praying that the lord wonít slow me down 

Iím tired and Iím sick 
Got a habit that I canít, wonít lick 
Feel hungover and Iím all in love 
Let the lights go down 
Me and you are gonna shoot them all 

| /  slide up 
| \  slide down 
| h  hammer-on 
| p  pull-off 
| ~  vibrato 
| +  harmonic 
| x  Mute note 

	  

Full key step upFull key step up
Half key step upHalf key step up
Half key step downHalf key step down
Full key step downFull key step down
Search Paypal
auto scroll beats size up size down change color hide chords drawings
tab show chords e-chords YouTube Clip e-chords hide all tabs e-chords go to top tab