Oasis

home > Oasis

Digsy's Dinner Tab

Oasis

Difficulty: ExpertExpert

by jonck

tuner correct add songbook print version text version save to e-mail
chordsukulelecavacokeyboardtabbassdrumsharmonicsflute Guitar Pro
chords

Digsy's Dinner

  		intro	A - C# - D - E - D - E - D7 - A - 2x
 
A                           C#                      D           E
  
What a life it would be, if you could come to mine for tea
                  D                  E                      D7 - A
 I'll pick you up at half past three we'll have lasagne
A                            C#  D                               E        
I'll treat you like a queen I'll give you strawberries and cream  
                          D                    E            D7 - A
And then your friends will all go green for my lasagne
F#m                                             A             D   
These will be the best days of our lives  But I don't think 
                                C#
we've been living very wise   oh no! no!
A                           C#                    D           
what a life it would be if you could come to mine
       E                    D
for tea I'll pick you up at half past 
E                           D7 - A
three we'll have lasagne  (yea)

solo - If you want this in real notes so you can play it on a piano or
keyboard, then transpose.(*smile*)  I am sure you can do it with
a transposing chart for guitar.  Or if your lucky, you have a friend that
can do if for you.  Note:  Octaves my very in actual playing on the album.
 
        A                     C#                      D        
e---------------------------------------------------------------------
B--14---14---14-15-14-------------------14----------------------------
G------------------------------16---16---16----16---14---14---16---14-
D---------------------------------------------------------------------

    E                    D                            E        
e---------------------------------------------------------------------
B---------------------------------------------------------------------
G-----------------14---16b17--17r---16---14---16-----------14---------
D--14--14--16------------------------------------------14---16--------

            D7                                                  A
e---------------------------------------------------------------------
------------
B------------------------------------14---14---14---15--14------------
---
G--16b-17--17--17r---14--16-------------------------------------------
-
D---------------------------------------------------------------------
----------


F#m                                             A              D   
These will be the best days of our lives  But I don't think 
                                C#
we've been living very wise   oh no! no!
A                           C#                      D         E
What a life it would be, if you could come to mine for tea
                  D                  E                     D7 - A
I'll pick you up at half past three we'll have lasagne
A                            C#  D                            E        
I'll treat you like a queen I'll give you strawberries and cream  
                          D                    E           D7 - A
And (then your friends will all go green) for my lasagne

guitar rift at the end:

e--------------------------------
B----------3------------3---2----
G------------------------------2-
D---4---6-----4---6-----------2--
A--------------------------------
E--------------------------------

e-----------------------------------
B-----------------------------------
G----------7-----------7---6--------
D-------------------------------7---
A---7---9-----7---9-------------7---
E-----------------------------------
	  

Full key step upFull key step up
Half key step upHalf key step up
Half key step downHalf key step down
Full key step downFull key step down
Search Paypal
auto scroll beats size up size down change color hide chords drawings
tab show chords e-chords YouTube Clip e-chords hide all tabs e-chords go to top tab