Nx Zero

home > Nx Zero

Ilusão Tab

Nx Zero

Difficulty: nolevelnolevel

by btopunk

tuner correct add songbook print version text version save to e-mail
chordsukulelecavacokeyboardtabbassdrumsharmonicsflute Guitar Pro
chords

Ilusão

  		 
Nx Zero-Ilusão 
 
iNTRO 
 
E------------------------------------------------------- 
A-5-5---5-5---5---1--1-1---1---3-3--3-3--3-------------- 
D-----0------0-0---0-----0--0------0----0--0------------ 
G------------------------------------------------------- 
B------------------------------------------------------- 
e------------------------------------------------------- 
D5           Bb5       C5     D5     Bb5 
a vida é feita das escolhas (que fazemos)  
D5               Bb5     C5 
com quem NÃO escolhemos ser 
 
D5             Bb5             C5  
é uma piada que NÃO tem mais graça 
D5               Bb5           C5  
e eu NÃO vejo ninguém sorrindo aqui 
 
 
Refrão 
 
F5 
Nãooooo        
C5 
seiiiii  
       D5        Bb5       C5 
se por mal minha vida eu perdi  
 
F5 
sóóóóó  
C5 
seiiiii   
        D5       F5          Bb5    C5 
que a verdade insiste em me iludir  
 
iNTRO 
 
E------------------------------------------------------- 
A-5-5---5-5---5---1--1-1---1---3-3--3-3--3-------------- 
D-----0------0-0---0-----0--0------0----0--0------------ 
G------------------------------------------------------- 
B------------------------------------------------------- 
e------------------------------------------------------- 
 
Dm              Bb     C  Dm      Bb 
quando te achei comecei (a me perder)  
Dm          Bb         C 
olha quanta paixão nos perdemos  
Dm              Bb              C 
e de frente para os abismos das paixões  
Dm             Bb             C 
mergulhar até onde restar-lhe fôlego  
 
Refrão 
 
F 
Nãooooo        
C 
seiiiii  
       Dm        Bb          C 
se por mal minha vida eu perdi  
 
F 
sóóóóó  
C 
seiiiii   
        Dm       F            Bb      C 
que a verdade insiste em me iludir  
 
SOLO(F5,C5,D5,Bb5,C5) 
           Oooooooooooo 
 
FINAL 
 
E------------------------------------------------------- 
A-5-5---5-5---5---1--1-1---1---3-3--3-3--3---4-4-4-4---5 
D-----0------0-0---0-----0--0------0----0--0--0---0--0-0 
G------------------------------------------------------- 
B------------------------------------------------------- 
e------------------------------------------------------- 
 

	  

Full key step upFull key step up
Half key step upHalf key step up
Half key step downHalf key step down
Full key step downFull key step down
Search Paypal
auto scroll beats size up size down change color hide chords drawings
tab show chords e-chords YouTube Clip e-chords hide all tabs e-chords go to top tab