Nx Zero

home > Nx Zero

Ilusão Bass Tab

Nx Zero

Difficulty: ExpertExpert

by VELHO

tuner correct add songbook print version text version save to e-mail
chordsukulelecavacokeyboardtabbassdrumsharmonicsflute Guitar Pro
chords

Ilusão

  		  "A vida é feita das escolhas..." 
G|-------------------------------------------------------------- 
D|-------------------------------------------------------------- 
A|-5-5-5-5-5-5-5-5--1-1-1-1-1-1--3-3-3-3-3-3-3-3--1-1-1--3-3-3-3 
E|-------------------------------------------------------------- 

G|------------------------------------------------------------- 
D|------------------------------------------------------------- 
A|-5-5-5-5-5-5-5-5--1-1-1-1-1-1-3-3-3-3-3-3-3-3-3-------------- 
E|------------------------------------------------------------- 
  
 "É uma piada que não tem mais graça..." 
G|-------------------------------------------------------------- 
D|-------------------------------------------------------------- 
A|-5-5-5-5-5-5-5-5--1-1-1-1-1-1--3-3-3-3-3-3-3-3-3-3-3-3-3-3-3-3 
E|-------------------------------------------------------------- 

G|-------------------------------------------------------------- 
D|-------------------------------------------------------------- 
A|-5-5-5-5-5-5-5-5--1-1-1-1-1-1--3-3-3-3-3-3-3-3-3/15-15-15-15-- 
E|-------------------------------------------------------------- 

  Refrão 
G|--------------------------------------------------------------    2x 
D|-------------------------------------------------------------- 
A|----------------3-3-3-3-3-3-3*--5-5-5-5-5-5-5*--1-1-1*--3-3-3* 
E|-1-1-1-1-1-1-1*----------------------------------------------- 

  "Quando te achei comecei..." 

G|-------------------------------------------------------------- 
D|-------------------------------------------------------------- 
A|-5-5-5-5-5-5-5-5--1-1-1-1-1-1--3-3-3-3-3-3-3-3-3-3-3-3-3-3-3-3 
E|-------------------------------------------------------------- 

G|-------------------------------------------------------------- 
D|-------------------------------------------------------------- 
A|-5-5-5-5-5-5-5-5--1-1-1-1-1-1--3-3-3-3-3-3-3-3-3-------------- 
E|-------------------------------------------------------------- 

  "E de frente para os..." 
G|-------------------------------------------------------------- 
D|-------------------------------------------------------------- 
A|-5-5-5-5-5-5-5-5--1-1-1-1-1-1--3-3-3-3-3-3-3-3-3-3-3-3-3-3-3-3 
E|-------------------------------------------------------------- 

G|-------------------------------------------------------------- 
D|-------------------------------------------------------------- 
A|-5-5-5-5-5-5-5-5--1-1-1-1-1-1--3-3-3-3-3-3-3-3-3/15-15-15-15-- 
E|-------------------------------------------------------------- 

  Refrão 
G|--------------------------------------------------------------    2x 
D|-------------------------------------------------------------- 
A|----------------3-3-3-3-3-3-3*--5-5-5-5-5-5-5*--1-1-1*--3-3-3* 
E|-1-1-1-1-1-1-1*----------------------------------------------- 

  Solo... 
G|--------------------------------------------------------------    6x 
D|-------------------------------------------------------------- 
A|-5-5-5-5--7-7-7-7--8-8-8-8--7-7/8-7--------------------------- 
E|-------------------------------------------------------------- 

  Refrão 
G|--------------------------------------------------------------    3x 
D|-------------------------------------------------------------- 
A|----------------3-3-3-3-3-3-3*--5-5-5-5-5-5-5*--1-1-1*--3-3-3* 
E|-1-1-1-1-1-1-1*----------------------------------------------- 
	  

Search Paypal
auto scroll beats size up size down change color hide chords drawings
tab show chords e-chords YouTube Clip e-chords hide all tabs e-chords go to top tab