Nirvana

Smells like teen spirt solo Tab

Nirvana

Difficulty: BeginnerBeginner

by panda25boy

tuner correct add songbook print version text version save to e-mail
chordsukulelecavacokeyboardtabbassdrumsharmonicsflute Guitar Pro
close

there isn't a video lesson for this song

request
chords

Smells like teen spirt solo

  		Standard tuning 
EADGBe 
 
/=slide up 
b=bend 
x=scratch 
 
Main Riff 
e------------------ 
B------------------ 
G-------33-------66 
D--33xxx33--66xxx66 
A--33xxx11--66xxx44 
E--11xxx----44xxx-- 
 
Second Riff 
e-1-1-1-1-1-1- 
B1-1-1-1-1-1-- 
G------------- 
D------------- 
A------------- 
E------------- 
 
Solo 1st Riff-play it twice then end on the bottom riff bellow 
e------------------------------------------ 
B------------------------------------------ 
G----8-10---8/9b-8-6-5-6-5----------------- 
D--10-----6-----------------8-6-8/9b-8-6-5- 
A------------------------------------------ 
E------------------------------------------ 
 
on the second time of the solo,it ends like this 
Solo 2nd Riff 
e------------------ 
B------------------ 
G------------------ 
D-6-5-6-5-6-5-6-5-3 
A------------------ 
E------------------ 
 
Play that Scond riff on the second time of solo 4 times to end the solo.  
 
 
 
 
 

	  

Search Paypal
auto scroll beats size up size down change color hide chords drawings
tab show chords e-chords YouTube Clip e-chords hide all tabs e-chords go to top tab

share with facebook