Nirvana

home > Nirvana

Smells Like Teen Spirit(Nivermind) Tab

Nirvana

Difficulty: BeginnerBeginner

by Slash+teen

tuner correct add songbook print version text version save to e-mail
chordsukulelecavacokeyboardtabbassdrumsharmonicsflute Guitar Pro
chords

Smells Like Teen Spirit(Nivermind)

  		introdução & Refrão 
 
e/------------------------------------------||-------- 
b/------------------------------------------||-------- 
g/-----------------------------------6-6-5-°||-------- 
d/-3-3-3-x-x-x-x-8-8-7-6-6-6-x-x-x-x-6-6-5-°||-------- 
a/-3-3-3-x-x-x-x-8-8-7-6-6-6-x-x-x-x-4-4-3--||-------- 
e/-1-1-1-x-x-x-x-6-6-5-4-4-4-x-x-x-x--------||-------- 
 
esta parte vc repete 6x e depois vem a base com solo: 
 
e/-------0------------------------------------------- 
b/-----0--------------------------------------------- 
g/----------3-3-3----------6-6-6--------------------- 
d/-3-3------3-3-3---6-6-6--6-6-6--------------------- 
a/-3-3------1-1-1---6-6-6--4-4-4--------------------- 
e/-1-1--------------4-4-4---------------------------- 
 
esta parte se repete em torno da música até o Refrão já no Refrão 
vc faz a introdução é a mesma coisa.:Slash Teen 
http://[email protected] 

	  

Search Paypal
auto scroll beats size up size down change color hide chords drawings
tab show chords e-chords YouTube Clip e-chords hide all tabs e-chords go to top tab