Nirvana

Smells like teen spirit (vrs. completa) Tab

Nirvana

Difficulty: BeginnerBeginner

by principe%5FBoddaH

tuner correct add songbook print version text version save to e-mail
chordsukulelecavacokeyboardtabbassdrumsharmonicsflute Guitar Pro
close
smells-like-teen-spirit

there is a video lesson for this song

view more
chords

Smells like teen spirit (vrs. completa)

  		Smells like teen spirits --- Nirvana 
 
Essa musica é tocado com a distorção on, 
tem q ter muita habilidade pra tocar essa musica 
 
 
    -111-xxx-11--444-xxx-44--- 
    -111-xxx-11--444-xxx-44--- 
    -111-xxx-22--444-xxx-66---    2X 
    -222-xxx-22--666-xxx-66---  distoção off 
    -222-xxx-11--666-xxx-44--- 
    -111-xxx-11--444-xxx-44--- 
 
    -111-xxx-11--444-xxx-44--- 
    -111-xxx-11--444-xxx-44--- 
    -111-xxx-22--444-xxx-66---   6X 
    -222-xxx-22--666-xxx-66--- distorção on 
    -222-xxx-11--666-xxx-44--- 
    -111-xxx-11--444-xxx-44--- 
  
   ------------- 
   ------------- 
   -------------  5X 
   --3---------- distorção off 
   --3---------- 
   ------------- 
 
--------------------- 
--------------------- 
-0-1-0-1-0-1-0-1-----  distorção on 
--------------------- 
--------------------- 
--------------------- 
ouça bem a música pra tirar esse solo acima 
 
    -111-xxx-11--444-xxx-44--- 
    -111-xxx-11--444-xxx-44--- 
    -111-xxx-22--444-xxx-66---   6X 
    -222-xxx-22--666-xxx-66--- distorção on 
    -222-xxx-11--666-xxx-44--- 
    -111-xxx-11--444-xxx-44--- 
 
Essa parte a baixo é um pouco parecida com a introdução 
 
    -111-xxx-11--444-xxx-4444--- 
    -111-xxx-11--444-xxx-4444--- 
    -111-xxx-22--444-xxx-6666---   2X 
    -222-xxx-22--666-xxx-6666--- distorção on 
    -222-xxx-11--666-xxx-4444--- 
    -111-xxx-11--444-xxx-4444--- 
 
 
   ------------- 
   ------------- 
   -------------  5X 
   --3---------- distorção off 
   --3---------- 
   ------------- 
  
 
--------------------- 
--------------------- 
-0-1-0-1-0-1-0-1-----  distorção on 
--------------------- 
--------------------- 
--------------------- 
ouça bem a música pra tirar esse solo acima 
 
 
 
    -111-xxx-11--444-xxx-44--- 
    -111-xxx-11--444-xxx-44--- 
    -111-xxx-22--444-xxx-66---   6X 
    -222-xxx-22--666-xxx-66--- distorção on 
    -222-xxx-11--666-xxx-44--- 
    -111-xxx-11--444-xxx-44--- 
 
essa parte abaixo é parecida com a introdução 
 
    -111-xxx-11--444-xxx-4444--- 
    -111-xxx-11--444-xxx-4444--- 
    -111-xxx-22--444-xxx-6666---   2X 
    -222-xxx-22--666-xxx-6666--- distorção on 
    -222-xxx-11--666-xxx-4444--- 
    -111-xxx-11--444-xxx-4444--- 
 
 ------------------------------------------------------- 
 --1--4--6-----4-6-4--2--1--2--1------------------------ 
 -------------1---------------------3--1--3-5-3--1--0---     3X  
 ------------------------------------------------------- distorção on 
 ------------------------------------------------------- 
 ------------------------------------------------------- 
 
  
 -------------------------------- 
 -------------------------------- 
 ---1-0---1-0---1-0---1-0--------   4X 
 ---------------------------3---- distorção on 
 -------------------------------- 
 -------------------------------- 
 
 
Agora o Kurt só canta, e o Krist e o Dave fazen um fundo 
agora ele toca essa pate 
 
 
--------------------- 
--------------------- 
-0-1-0-1-0-1-0-1-----  distorção on 
--------------------- 
--------------------- 
--------------------- 
ouça bem a música pra tirar esse solo acima 
 
    -111-xxx-11--444-xxx-44--- 
    -111-xxx-11--444-xxx-44--- 
    -111-xxx-22--444-xxx-66---   10X 
    -222-xxx-22--666-xxx-66--- distorção on 
    -222-xxx-11--666-xxx-44--- 
    -111-xxx-11--444-xxx-44--- 
 
-1---- 
-1----  deixa o som dessa nota soar livre 
-1---- 
-2---- 
-2---- 
-1---- 

	  

Search Paypal
auto scroll beats size up size down change color hide chords drawings
tab show chords e-chords YouTube Clip e-chords hide all tabs e-chords go to top tab

share with facebook